» » »

No One Knows Tabs (ver.5)

Artists:  A B C D E F G H I J K L M N O P Q R S T U V W X Y Z # 

No One Knows Tabs (ver.5)

Queens Of The Stone Age
Rating:
0/5 (0 votes)

Tabs too difficult? Try these video lessons and learn fast.
                intro
|---12----|
|----8----|
|----x----|
|----9----|
|----7----|
|---------|






|------------------------------------------
|------------------------------------------
|------------------------------------------
|--5-5-5-5-5-5-5-5-5/-9-9-9-9-9-9-9-------
|--5-5-5-5-5-5-5-5-5/-9-9-9-9-9-9-9-------
|--3-3-3-3-3-3-3-3-3/-7-7-7-7-7-7-7-------




chorus - and i realize ur mine.....
|-----------------------------------------------------------------------
|-----------------------------------------------------------------------
|------------------------------------------------------------------------
|--9-x--11-x--12--x-11--x--14--x--12--x---15--x--14-----
|--9-x--11-x--12--x-11--x--14--x--12--x---15--x--14-----
|--7-x---9--x--10--x--9---x--12--x--10--x-13--x--12----

|---------------------------------------------------------------------------
|---------------------------------------------------------------------------
|---------------------------------------------------------------------------
|-------9-----9------9-------9-------9--------9--------9---------9----
|-------9-----9------9-------9-------9--------9--------9---------9----
|---0--7--0--7--0--7--0---7---0---7---0---7---0---7----0---7----

|-----------------------------------------------------------------------
|-----------------------------------------------------------------------
|------------------------------------------------------------------------
|--9-x--11-x--12--x-11--x--14--x--12--x---15--x--14-----
|--9-x--11-x--12--x-11--x--14--x--12--x---15--x--14-----
|--7-x---9--x--10--x--9---x--12--x--10--x---13--x--12----

|---------------------------------------------------------------------------
|---------------------------------------------------------------------------
|---------------------------------------------------------------------------
|-------9-----9------9-------9-------9--------9--------9---------9----
|-------9-----9------9-------9-------9--------9--------9---------9----
|---0--7--0--7--0--7--0---7---0---7---0---7---0---7----0---7----


in the acoustic version there is no solo.
josh skips to the second bass riff

|-------------------
|--------------------
|-------------------- 
|--------------------       x24
|--------------------
|-------12x--------

heaven smiles above me
|----------------------------------------------------
|----------------------------------------------------
|-----------10-----10------10----10-10-10---
|-----------10-----10------10----10-10-10---
|-----------10-----10------10----10-10-10---
|--15/-0---8--0---8---0---8--0--8---8--8----

|----------------------------------------------------
|----------------------------------------------------
|--10------10------10------10-10-10---------
|--10------10------10------10-10-10--------
|--10------10------10------10-10-10--------
|---8---0---8---0---8----0--8---8---8---------

|----------------------------------------------------
|----------------------------------------------------
|--10------10------10------10-10-10---------
|--10------10------10------10-10-10--------
|--10------10------10------10-10-10--------
|---8---0---8---0---8----0--8---8---8---------

|----------------------------------------------------
|----------------------------------------------------
|--10------10------10------10-10-10---------
|--10------10------10------10-10-10--------
|--10------10------10------10-10-10--------
|---8---0---8---0---8----0--8---8---8---------

|----------------------------------------------------
|----------------------------------------------------
|----------------------------------------------------
|--5-5-5-5-5-5-5-5-5/-9-9-9-9-9-9-9------
|--5-5-5-5-5-5-5-5-5/-9-9-9-9-9-9-9------
|--3-3-3-3-3-3-3-3-3/-7-7-7-7-7-7-7------

|----------------------------------------------------------------
|----------------------------------------------------------------
|------------10----10----8---10--10--10----8---10-----
|------------10----10----8---10--10--10----8---10-----
|------------10----10----8---10--10--10----8---10-----
|--15/-0----8------8----8----8----8----8-----8----8------

|----------------------------------------------------------------
|----------------------------------------------------------------
|------------10----10----8---10--10--10----8---10-----
|------------10----10----8---10--10--10----8---10-----
|------------10----10----8---10--10--10----8---10-----
|--15/-0----8------8----8----8----8----8-----8----8------

gift that you give to me
|----------------------------------------------------
|----------------------------------------------------
|----------------------------------------------------
|--5-5-5-5-5-5-5-5-5/-9-9-9-9-9-9-9------
|--5-5-5-5-5-5-5-5-5/-9-9-9-9-9-9-9------
|--3-3-3-3-3-3-3-3-3/-7-7-7-7-7-7-7------

no one knows
|--------------------------10--10----------------
|--------------------------10--10----------------
|---10----10-----10----10--10---------------
|---10----10-----10----10--10---------------
|---10----10-----10----10--10---------------
|----8------8------8------8----8----------------

thats the song.
            
Tabs too difficult? Try these video lessons and learn fast.




comments powered by Disqus
↑ Back to top | Tablatures and chords are parodies/interpretations of the original songs. You may use it for private study, scholarship, research or language learning purposes only