>
 >
No One Knows 98%

No One Knows 98% Guitar Tabs

Queens Of The Stone Age - No One Knows 98% chords, tabs, tablatures, lyrics

Guitar lessons | Add/correct | Request | Top 50 tabs Artists:  A B C D E F G H I J K L M N O P Q R S T U V W X Y Z 0-9

No One Knows 98% Guitar Tabs – Queens Of The Stone Age

CD, Sheet music, Poster

Do you like No One Knows 98%? Share with your friends now
Tabs
Intro.
E----3--3--3--3------12>3----------------------------------
B----4--4--4--4------13>4----------------------------------
G----5--5--5--5------14>5----------------------------------
D----5--5--5--5------14>5----------------------------------
A----3--3--3--3------12>3----------------------------------
E----3--3--3--3------12>3----------------------------------


chorus
E----3-3-3-3--3-3-3---3-3-3-3--3-3-3-----------------------
B----6-6-4-4--6-6-4---6-6-4-4--6-6-4-----------------------
G----3-3-3-5--3-3-5---3-3-3-5--3-3-5-----------------------
D----5-5-5-5--5-5-5---5-5-5-5--5-5-5-----------------------
A----------------------------------------------------------
E----------------------------------------------------------

                                                            down stroke then 
Verse                *                   *                  up then down = *
E------3---3---3---3-3-3---3---3---3---3-3-3---------------
B------4---4---4---4-4-4---4---4---4---4-4-4---------------
G------5---5---5---5-5-5---5---5---5---5-5-5---------------
D----5---5---5---5-----------5---5---5-------5-------------
A----3---3---3---3-----------3---3---3-------3-------------
E----3---3---3---3-----------3---3---3-------3-------------



Verse (build up)     *                  p                   down stroke then                                                          
E------3---3---3---3-3-3---2---2---2---2-2----------------- up = p
B------3---3---3---3-3-3---4---4---4---4-4-----------------
G------4---4---4---4-4-4---4---4---4---4-4-----------------
D----5---5---5---5-------4---4---4---4---------------------
A----5---5---5---5-------2---2---2---2---------------------
E----3---3---3---3-------2---2---2---2---------------------



chorus
E----3-3-3-3-3--3-3-3---3-3-3-3--3-3-3---------------------
B----4-6-6-4-4--6-6-4---6-6-4-4--6-6-4---------------------
G----5-3-3-3-5--3-3-5---3-3-3-5--3-3-5---------------------
D----5-5-5-5-5--5-5-5---5-5-5-5--5-5-5---------------------
A----3-----------------------------------------------------
E----3-----------------------------------------------------


Bridge
E----------------------------------------
B----------------------------------------
G----5-7-8-7-10-8-12-10------------------
D----0-0-0-0-0--0-0--0---5-5-5-5-5-5-5-5-   X4 then back to chorus
A----3-5-6-5-8--6-10-8---5-5-5-5-5-5-5-5-
E------------------------3-3-3-3-3-3-3-3-


i haven't worked out the solo but all the stuff above 
i can say is almost perfect! ney comments 





Comments


Popular Queens Of The Stone Age tabs & chords
Burn The Witch 4 Bass Tabs
Im Designer 2 Bass Tabs
In My Head 2 Bass Tabs
Millionare Bass Tabs
Long Slow Goodbye 1 Chords
Anderson Anderson Tabs
Avon 5 Tabs
I Sat By The Ocean Tabs
No One Knows - Clear Tab Tabs
Precious And Grace Tabs


Song lyrics



↑ Back to top | Tablatures and chords are parodies/interpretations of the original songs. You may use it for private study, scholarship, research or language learning purposes only
© 2014 AZChords.com Contact us | Privacy policy | DMCA | Add/correct tabs | Request tabs | Top 50 tabs