>
 >
No One Knows 5

No One Knows 5 Bass Tabs

Queens Of The Stone Age - No One Knows 5 chords, tabs, tablatures, lyrics

Guitar lessons | Add/correct | Request | Top 50 tabs Artists:  A B C D E F G H I J K L M N O P Q R S T U V W X Y Z 0-9

No One Knows 5 Bass Tabs – Queens Of The Stone Age

CD, Sheet music, Poster

Do you like No One Knows 5? Share with your friends now
Bass TabsBass Tabs v2Bass Tabs v3Bass Tabs v4Bass Tabs v5Bass Tabs v6Bass Tabs v7Bass Tabs v8ChordsDrum TabsDrum Tabs v2TabsTabs v2Tabs v10Tabs v3Tabs v4Tabs v5Tabs v6Tabs v7Tabs v8Tabs v9Ukulele
              Queens of the Stone Age -  No One Knows    
	
Note: Pretty simple song to play.. Listen to the song to get the rhythm.

D#||--------------------|--------------------|--------------------|
A#||--------------------|--------------------|--------------------|
F ||--7--------7--------|--7--------7--------|--------------------|
C ||--------------------|--------------------|--0--------0--------|

                                                               
--------------------|--------------------|--------------------|
--------------------|--------------------|--------------------|
--------------------|--------------------|--------------------|
--0--------0--------|--0--------0--------|--0--------0--------|

                                                               
--------------------|--------------------|--------------------|
--------------------|--------------------|--------------------|
--------------------|--------------------|--------------------|
--0--------0--------|--0--------0--------|--0--------0--------|

                                                               
--------------------|--------------------|--------------------|
--------------------|--------------------|--------------------|
--------------------|--7--------7--------|--7--------7--------|
--0--------0--------|--------------------|--------------------|

                                                               
--------------------|--------------------|--------------------|
--------------------|--------------------|--------------------|
--7--------7--------|--7--------7--------|--7--------7--------|
--------------------|--------------------|--------------------|

                                                               
--------------------|--------------------|--------------------|
--------------------|--------------------|--------------------|
--7--------7--------|--7--------7--------|--7--------7--------|
--------------------|--------------------|--------------------|

                                                                 
--------------------|--------------------|----------------------|
--------------------|--------------------|----------------------|
--------------------|--------------------|----------------------|
--7--------7--------|--7--------7--------|--11--------11--------|

                                                                 
----------------------|--------------------|--------------------|
----------------------|--------------------|--------------------|
----------------------|--------------------|--------------------|
--11--------11--------|--0--------0--------|--0--------0--------|

                                                               
--------------------|--------------------|--------------------|
--------------------|--------------------|--------------------|
--------------------|--------------------|--7--------7--------|
--0--------0--------|--0--------0--------|--------------------|

                                                               
--------------------|--------------------|--------------------|
--------------------|--------------------|--------------------|
--7--------7--------|--7--------7--------|--7--------7--------|
--------------------|--------------------|--------------------|

                                                               
--------------------|--------------------|--------------------|
--------------------|--------------------|--------------------|
--7--------7--------|--7--------7--------|--7--------7--------|
--------------------|--------------------|--------------------|

                                                               
--------------------|--------------------|--------------------|
--------------------|--------------------|--------------------|
--7--------7--------|--------------------|--------------------|
--------------------|--7--------7--------|--7--------7--------|

                                                                   
----------------------|----------------------|--------------------|
----------------------|----------------------|--------------------|
----------------------|----------------------|--------------------|
--11--------11--------|--11--------11--------|--0--------0--------|

                                                               
--------------------|--------------------|--------------------|
--------------------|--------------------|--------------------|
--------------------|--------------------|--------------------|
--0--------0--------|--0--------0--------|--0--------0--------|

                                                                         
----------------------|----------------------|----------------|
----------------------|----------------------|----------------|
----------------------|----------------------|----------------|
--7----7----7----7----|--7----7----7----7----|--11-11--11--11-|

                                                                     
--------------------------|--------------------|--------------------|
--------------------------|--------------------|--------------------|
--------------------------|--------------------|--------------------|
--11----11----11----11----|--0--------0--------|--0--------0--------|

                                                                  
--------------------|--------------------|-----------------------|
--------------------|--------------------|-----------------------|
--------------------|--------------------|--7----9----10----9----|
--0--------0--------|--0--------0--------|-----------------------|

                                                                     
--------------------------|--------------------|--------------------|
--------------------------|--------------------|--------------------|
--12----10----14----12----|--------------------|--------------------|
--------------------------|--7--------7--------|--7--------7--------|

                                                                        
-----------------------|--------------------------|-----------------|
-----------------------|--------------------------|-----------------|
--7----9----10----9----|--12----10----14----12----|-----------------|
-----------------------|--------------------------|--7--------7-----|

                                                                        
--------------------|-----------------------|-----------------------|
--------------------|-----------------------|-----------------------|
--------------------|--7----9----10----9----|--12----10----14----12-|
--7--------7--------|-----------------------|-----------------------|

                                                                  
--------------------|--------------------|-----------------------|
--------------------|--------------------|-----------------------|
--------------------|--------------------|--7----9----10----9----|
--7--------7--------|--7--------7--------|-----------------------|

                                                                     
--------------------------|--------------------|--------------------|
--------------------------|--------------------|--------------------|
--12----10----14----12----|--------------------|--------------------|
--------------------------|--7--------7--------|--7--------7--------|

                                                               
--------------------|--------------------|--------------------|
--------------------|--------------------|--------------------|
--------------------|--------------------|--------------------|
--0--------0--------|--0--------0--------|--0--------0--------|

                                                               
--------------------|--------------------|--------------------|
--------------------|--------------------|--------------------|
--------------------|--7--------7--------|--7--------7--------|
--0--------0--------|--------------------|--------------------|

                                                               
--------------------|--------------------|--------------------|
--------------------|--------------------|--------------------|
--7--------7--------|--7--------7--------|--7--------7--------|
--------------------|--------------------|--------------------|

                                                               
--------------------|--------------------|--------------------|
--------------------|--------------------|--------------------|
--7--------7--------|--7--------7--------|--7--------7--------|
--------------------|--------------------|--------------------|

                                                                 
--------------------|--------------------|----------------------|
--------------------|--------------------|----------------------|
--------------------|--------------------|----------------------|
--7--------7--------|--7--------7--------|--11--------11--------|

                                                                 
----------------------|--------------------|--------------------|
----------------------|--------------------|--------------------|
----------------------|--------------------|--------------------|
--11--------11--------|--0--------0--------|--0--------0--------|

                                                               
--------------------|--------------------|--------------------|
--------------------|--------------------|--------------------|
--------------------|--------------------|--7--------7--------|
--0--------0--------|--0--------0--------|--------------------|

                                                               
--------------------|--------------------|--------------------|
--------------------|--------------------|--------------------|
--7--------7--------|--7--------7--------|--7--------7--------|
--------------------|--------------------|--------------------|


--------------------|--------------------|--------------------|
--------------------|--------------------|--------------------|
--7--------7--------|--7--------7--------|--7--------7--------|
--------------------|--------------------|--------------------|

                                                               
--------------------|--------------------|--------------------|
--------------------|--------------------|--------------------|
--7--------7--------|--------------------|--------------------|
--------------------|--7--------7--------|--7--------7--------|

                                                                   
----------------------|----------------------|--------------------|
----------------------|----------------------|--------------------|
----------------------|----------------------|--------------------|
--11--------11--------|--11--------11--------|--0--------0--------|

                                                               
--------------------|--------------------|--------------------|
--------------------|--------------------|--------------------|
--------------------|--------------------|--------------------|
--0--------0--------|--0--------0--------|--0--------0--------|

                                                                         
----------------------|----------------------|----------------|
----------------------|----------------------|----------------|
----------------------|----------------------|----------------|
--7----7----7----7----|--7----7----7----7----|-11--11--11--11-|

                                                                         
--------------------------|----------------------|------------|
--------------------------|----------------------|------------|
--------------------------|----------------------|------------|
--11----11----11----11----|--0----0----0----0----|-0--0--0--0-|

                                                                      
----------------------|----------------------|-----------------------|
----------------------|----------------------|-----------------------|
----------------------|----------------------|--7----9----10----9----|
--0----0----0----0----|--0----0----0----0----|-----------------------|

                                                                     
--------------------------|--------------------|--------------------|
--------------------------|--------------------|--------------------|
--12----10----14----12----|--------------------|--------------------|
--------------------------|--7--------7--------|--7--------7--------|

                                                                        
-----------------------|--------------------------|-----------------|
-----------------------|--------------------------|-----------------|
--7----9----10----9----|--12----10----14----12----|-----------------|
-----------------------|--------------------------|--7--------7-----|

                                                                        
--------------------|-----------------------|-----------------------|
--------------------|-----------------------|-----------------------|
--------------------|--7----9----10----9----|--12----10----14----12-|
--7--------7--------|-----------------------|-----------------------|

                                                                  
--------------------|--------------------|-----------------------|
--------------------|--------------------|-----------------------|
--------------------|--------------------|--7----9----10----9----|
--7--------7--------|--7--------7--------|-----------------------|

                                                                     
--------------------------|--------------------|--------------------|
--------------------------|--------------------|--------------------|
--12----10----14----12----|--------------------|--------------------|
--------------------------|--7--------7--------|--7--------7--------|

                                                                     
----------------------|----------------------|----------------------|
----------------------|----------------------|----------------------|
--7----7----7----7----|--7----7----7----7----|--7----7----7----7----|
----------------------|----------------------|----------------------|

                                                                               
--------------------------------|----------------------|------------|
--------------------------------|----------------------|------------|
------------6-------------------|--7----7----7----7----|-7--7--7--7-|
--7----8---------7----5----7----|----------------------|------------|

                                                        
----------------------|--------------------------------|
----------------------|--------------------------------|
--7----7----7----7----|------------6-------------------|
----------------------|--7----8---------7----5----7----|

                                                                  
--------------------------------|--------------------------------|
--------------------------------|--------------------------------|
------------6-------------------|------------6-------------------|
--7----8---------7----5----7----|--7----8---------7----5----7----|

                                                              
--------------------------------|----------------------------|
--------------------------------|----------------------------|
------------6-------------------|--7----7--7--7h-7--7--7--7--|
--7----8---------7----5----7----|----------------------------|

                                                          
----------------------------|----------------------------|
----------------------------|-------------5h-7--7--7--7--|
--7----7--7--5h-7--7--7--7--|--7----7--7-----------------|
----------------------------|----------------------------|

                                                              
--------------------------------|----------------------------|
--------------------------------|----------------------------|
--5h-7--7--7--7-----------------|--7----7--7--7h-7--7--7--7--|
-----------------5h-7--7--7--7--|----------------------------|

                                                          
----------------------------|----------------------------|
----------------------------|-------------5h-7--7--7--7--|
--7----7--7--5h-7--7--7--7--|--7----7--7-----------------|
----------------------------|----------------------------|

                                                              
--------------------------------|----------------------------|
--------------------------------|----------------------------|
--5h-7--7--7--7-----------------|--7----7--7--7h-7--7--7--7--|
-----------------5h-7--7--7--7--|----------------------------|

                                                          
----------------------------|----------------------------|
----------------------------|-------------5h-7--7--7--7--|
--7----7--7--5h-7--7--7--7--|--7----7--7-----------------|
----------------------------|----------------------------|

                                                              
--------------------------------|----------------------------|
--------------------------------|----------------------------|
--5h-7--7--7--7-----------------|--7----7--7--7h-7--7--7--7--|
-----------------5h-7--7--7--7--|----------------------------|

                                                          
----------------------------|----------------------------|
----------------------------|-------------5h-7--7--7--7--|
--7----7--7--5h-7--7--7--7--|--7----7--7-----------------|
----------------------------|----------------------------|

                                                          
--------------------------------|------------------------|
--------------------------------|------------------------|
--5h-7--7--7--7-----------------|------------------------|
-----------------5h-7--7--7--7--|--0----12----0----12----|

                                                                           
------------------------|------------------------|----------------|
------------------------|------------------------|----------------|
------------------------|------------------------|----------------|
--0----12----0----12----|--0----12----0----12----|--0--12--0--12--|

                                                                           
------------------------|------------------------|----------------|
------------------------|------------------------|----------------|
------------------------|------------------------|----------------|
--0----12----0----12----|--0----12----0----12----|--0--12--0--12--|

                                                                           
------------------------|------------------------|----------------|
------------------------|------------------------|----------------|
------------------------|------------------------|----------------|
--0----12----0----12----|--0----12----0----12----|--0--12--0--12--|

                                                                         
------------------------|------------------------|----------------|
------------------------|------------------------|----------------|
------------------------|------------------------|----------------|
--0----12----0----12----|--0----12----0----12----|--7---7---7--7--|

                                                                             
----------------------|--------------------------|----------------|
----------------------|--------------------------|----------------|
----------------------|--------------------------|----------------|
--7----7----7----7----|--11----11----11----11----|-11--11--11--11-|

                                                                     
----------------------|----------------------|----------------------|
----------------------|----------------------|----------------------|
----------------------|----------------------|----------------------|
--0----0----0----0----|--0----0----0----0----|--0----0----0----0----|

                                                                     
----------------------|----------------------|----------------------|
----------------------|----------------------|----------------------|
----------------------|----------------------|----------------------|
--0----0----0----0----|--7----7----7----7----|--7----7----7----7----|

                                                                           
--------------------------|--------------------------|--------------|
--------------------------|--------------------------|--------------|
--------------------------|--------------------------|--7--------7--|
--11----11----11----11----|--11----11----11----11----|--0--------0--|

                                    
--------------------|------|------||
--------------------|------|------||
--7--------7--------|------|------||
--0--------0--------|------|------||

This is a great song but don\'t give me credit for tabbing it i got it off
someone else but i edited it! Have Fun!





Comments


Popular Queens Of The Stone Age tabs & chords
How To Handle A Rope 2 Bass Tabs
Kalopsia 2 Bass Tabs
Quick And To The Pointless Bass Tabs
God Is In The Radio Tabs
I Think I Lost My Headache 3 Tabs
I Wanna Make It Wit Chu Live Tabs
Precious And Grace Intro Tabs
Regular Johnstandard Tuning Tabs
Walkin On Sidewalks Tabs
No One Knows Ukulele


Song lyrics



↑ Back to top | Tablatures and chords are parodies/interpretations of the original songs. You may use it for private study, scholarship, research or language learning purposes only
© 2014 AZChords.com Contact us | Privacy policy | DMCA | Add/correct tabs | Request tabs | Top 50 tabs