» » »

Queens Of The Stone Age, No One Knows Tabs (ver.10)

Artists:  A B C D E F G H I J K L M N O P Q R S T U V W X Y Z # 

No One Knows Tabs (ver.10)

Queens Of The Stone Age Tabs
Rating:
0/5 (0 votes)
No One Knows lessons Tabs too difficult? Try these video lessons and learn fast
                ---------------------------------------------------------------------
Queens Of The Stone Age- Band Name
----------------------------------------------------------------------
Note: this version is in standard tuning, which is not the way that 
it is played on the C-D, but if you your like me and cant be doing 
with tuning down to C#, or what ever Josh Homme uses, this is just 
For You.
Intro: 
e|------------------------------------------------------------------
B|------------------------------------------------------------------
G|--10-10-10-10----------10--10-8-------10-10-8---------10-10-8-----
D|--10-10-10-10----------10-------10----10------10------10------10--
A|--10-10-10-10----------10-------------10--------------10----------
E|--8--8--8--8----15\----8---------------8----------15\--8----------

e|--------------------------------------------------------<12>---
B|--------------------------------------------------------<12>---
G|---10--10-8---------10-10-10b12r10------10-10-8-----10---------
D|---10-------10------10------------------10------10--10---------
A|---10---------------10------------------10----------10---------
E|---8-----------15\--8--------------15\--8-----------8----------

Verse
e|------------------------------------------------------------------
B|------------------------------------------------------------------
G|-----10----10-----10-10-8-10-8------------------------------------
D|-----10----10-----10-10-8-10-8-x4--5-5-5-5-5-5-5-5-5--9-9-9-9-9-9-
A|--10----10-----10----10-8-10-8-----5-5-5-5-5-5-5-5-5--9-9-9-9-9-9-
E|--8-----8------8-----8--8-8--8-----3-3-3-3-3-3-3-3-3--7-7-7-7-7-7-

Note:the fills in between the main riff here change after nearly every verse.
Instead of going through the whole song to show them
I`ll just list all the fills used below.
e|------------------------------------------------<12>-----
B|------------------------------------------------<12>-----
G|-10-10-8-----10-10-8-------------10-10-8-----10----------
D|-10------10--10------10----------10------10--10----------
A|-10----------10------------------10----------10----------
E|-8-----------8-----------15\-----8-----------8-----------

Fills:Also note that when you play this part and Josh goes straight
into another verse there will be no fill after the main riff.
e|--------------|-------------|------|-<12>-----------------------
B|--------------|------13-----|------|-<12>-----------------------
G|--------------|--10b--------|------|----------------------------
D|--------------|----------10-|------|----------------------------
A|-----6h8p6----|-------------|------|----------------------------
E|-6/8-------8--|-------------|--15\-|----------------------------

Chorus:
e|------------------------------------------------------------------
B|------------------------------------------------------------------
G|------------------------------------------------------------------
D|--10-x-12-x-13-x-12-x-13-x-15-x-17-x-15-10-8-10-8-10-8-10-8-10-8--
A|-----x----x----x----x----x----x----x----10-8-10-8-10-8-10-8-10-8--
E|--8--x-10-x-11-x-10-x-11-x-13-x-15-x-13-8--8-8--8-8--8-8--8-8--8--

e|-------------------------------------------------------------------
B|-------------------------------------------------------------------
G|-------------------------------------------------------------------
D|--10-8-10-8-10---------Back To Verse-------------------------------
A|--10-8-10-8-10-----------------------------------------------------
E|--8--8-8--8-8------------------------------------------------------

Bridge:
e|-------------------------------------------------------------------
B|-------------------------------------------------------------------
G|--------------------------------------------------------4----------
D|--10-10-10-10-10-10-10-10-10-10-10-10-10-10-10-10---5-6-4-5-3-5----
A|--10-10-10-10-10-10-10-10-10-10-10-10-10-10-10-10---5-6-2-5-3-5-x2-
E|--8--8--8--8--8--8--8--8--8--8--8--8--8--8--8--8----3-4---3-1-3----

e|-------------------------------------------------------------------
B|-------------------------------------------------------------------
G|------4----------5-------------------------------------------------
D|--5-6-4-5-3-5----5-------------------------------------------------
A|--5-6-2-5-3-5-x3-3-------------------------------------------------
E|--3-4---3-1-3------------------------------------------------------

Solo:
e|---------------------8-8-11~-11-8-11p8-----------------------------
B|------------8~--8-11-------------------11-8-11p8----8h11p8---------
G|-------8-10--------------------------------------10~-------8~------
D|--8-10-------------------------------------------------------------
A|-------------------------------------------------------------------
E|-------------------------------------------------------------------

e|-------------------------------------------------------------------
B|--8h11p8---------------8~~------8-11-11b12-----8-11-11b13----8-11--
G|---------7~------8-10------8/10------------8/10----------8/10------
D|------------8-10---------------------------------------------------
A|-------------------------------------------------------------------
E|-------------------------------------------------------------------

e|-------------------------------------------------------------------
B|--13b15--13-15p13-13-11--13-15p13-13-11--13-15p13-13-11--13-15p13--
G|-------------------------------------------------------------------
D|-------------------------------------------------------------------
A|-------------------------------------------------------------------
E|-------------------------------------------------------------------

e|-------------------------------- Well thats It I hope it Helps!
B|--13-15p13-13-11--11-13-\-------
G|--------------------------------
D|----------------------------End- 
A|--------------------------------
E|--------------------------------
            

comments powered by Disqus
↑ Back to top | Queens Of The Stone Age Tabs for No One Knows. Lyrics for acoustic guitar and electric guitar. Tablatures and chords are parodies/interpretations of the original songs. You may use it for private study, scholarship, research or language learning purposes only