» » »

No One Knows Tabs (ver.3)

Artists:  A B C D E F G H I J K L M N O P Q R S T U V W X Y Z # 

No One Knows Tabs (ver.3)

Queens Of The Stone Age
Rating:
0/5 (0 votes)

Hard to play? Try these video lessons and learn fast.
                


I know the real tuning is C F Bb Eb G C , but my tabs is in STANDARD TUNING and it sounds very good,(please rate me).


intro:
riff1
|--------------------------|
|--------------------------|
|--------------------------|
|--10-10-10-10-------------|
|--10-10-10-10-------------|
|---8--8--8--8-------------|

riff 2                                                                             riff3
|------------------------------------|--------------------------------------10---|
|------------------------------------|--------------------------------------10---|
|10-10-8--10-10-8--10-10-8--10-10-8--|--10-10-8--10-10-/12/10--10-10-8------10---|
|--------10-------10-------10------10|---------10----------------------10-8-10---|
|------------------------------------|-------------------------------------------|
|------------------------------------|-------------------------------------------|

between the verses, riff 2 is played again

verse
|---------------------------------------------------------------------------------|
|---------------------------------------------------------------------------------|
|---------------------------------------------------------------------------------|
|-10x-10x-10x-10-10/12/10x-10x-10x-10--5-5-5-5-5-5-5555-9-9-9-9-9-9-9-9-----------|
|-10x-10x-10x-10-10/12/10x-10x-10x-10--5-5-5-5-5-5-5555-9-9-9-9-9-9-9-9-----------|
|--8x--8x--8x--8--8/10/-8x--8x--8x--8--3-3-3-3-3-3-3030-7-7-7-7-7-7-7-7-----------|


chorus

|--------------------------------------------------------|
|--------------------------------------------------------|
|--------------------------------------------------------|
|--------------------------------5-5-5-5-5-5-5-5---------|
|----------------8---10-8--------5-5-5-5-5-5-5-5---------|
|--8-10-11-10--11----------------3-3-3-3-3-3-3-3---------|         (x2)

|-----------------------------------------------------------------------------------|
|-----------------------------------------------------------------------------------|
|-----------------------------------------------------------------------------------|
|---------------------5-5-5-5-5-5-5-5--------------------------------5-5-5-5-5-5-5-5|
|---------------------5-5-5-5-5-5-5-5------------------8-10-8--------5-5-5-5-5-5-5-5|
|-11-10-8-7-11-10-8-7-3-3-3-3-3-3-3-3----8-10-11-10--11--------------3-3-3-3-3-3-3-3|

bridge
|----------------------------------------------------------------------|
|----------------------------------------------------------------------|
|----------------------------------------------------------------------|
|-10x-10x-10x-10x-10x-10x-10x-10x-10x-10x-10x-10x--5-6-9-6-5--6--------| |--10------|
|-10x-10x-10x-10x-10x-10x-10x-10x-10x-10x-10x-10x--5-6-9-6-5--6--------| |--10------|
|--8x--8x--8x--8x--8x--8x--8x--8x--8x--8x--8x--8x--3-4-7-4-3--4--------| |---8------|
                                             #1|---------------|      #2 |----------|
second time you play the bridge ,repeat this part 4 times (#1) with this part at the end of the four times (#2)

and it's the bass solo

Transcribed for the guitar

|-----------------------------------------------------------------------------------|
|-----------------------------------------------------------------------------------|
|-----------------------------------------------------------------------------------|
|-----------------------------------------------------------------------------------|
|--------------------------------------------------------6h8-8-8--------------------|
|--6h8-8-8-8-8-8-8-6h8-8-8-8-8-8-8-6h8-8-8------6h8-8-8----------3-3-3--------------|
guitar solo

|-----------------------------------------------------------------------------------|
|-------------------------15--------------------------------------------------------|
|5-5\8-8\10-10\12--17-17-15-15\17-15-12--12-10-8-10--10-8-7-8--8-7-5-7--8-7-5-7\12--|
|-----------------------------------------------------------------------------------|
|-----------------------------------------------------------------------------------|
|-----------------------------------------------------------------------------------|

|-----------------------------------------------------------------------------------|
|---8-/11-/0------8-/11------8/11-------15---------------------15-------------------|
|5-8----------5-8---------5-8---------------15-14-12-12-12---------15-14-12-12-12---|
|-----------------------------------------------------------------------------------|
|-----------------------------------------------------------------------------------|
|-----------------------------------------------------------------------------------|

|----------------------------------------------------------|
|--15----------------------15------------------13----------|
|------15-14-12-12-12-----------15-14-12-12-12-------------|
|----------------------------------------------------------|
|----------------------------------------------------------|
|----------------------------------------------------------|

I am not sure of the end of the solo but it sound good
            
Hard to play? Try these video lessons and learn fast. | Correct




comments powered by Disqus
↑ Back to top | Tablatures and chords are parodies/interpretations of the original songs. You may use it for private study, scholarship, research or language learning purposes only