» » »

Queens Of The Stone Age, No One Knows Tabs (ver.2)

Artists:  A B C D E F G H I J K L M N O P Q R S T U V W X Y Z # 

No One Knows Tabs (ver.2)

Queens Of The Stone Age Tabs
 Rating:
4/5 (4 votes)
No One Knows lessons Tabs too difficult? Try these video lessons and learn fast
                Light Distortion
E|-3-------3-------3-------3---------------------------------------
B|-4-------4-------4-------4---------------------------------------
G|-5-pause-5-pause-5-pause-5---------------------------------------
D|-5-------5-------5-------5---------------------------------------
A|-3-------3-------3-------3---------------------------------------
E|-----------------------------------------------------------------
  Guitar 1 Med Distortion  
E|-----------------------------------------------------------------
B|-----------------------------------------------------------------
G|-5-5-5-5---------------------------------------------------------
D|-5-5-5-5---------------------------------------------------------
A|-3-3-3-3---------------------------------------------------------
E|-----------------------------------------------------------------

  Guitar 2  Riff 1
E|-----------------------------------------------------------------
B|-6---6--4---6---6--4---------6---6--4---6--4--6>8^---------------
G|-5---5--5---5---5--5---------5---5--5---5--5---------------------
D|-----------------------------------------------------------------
A|-----------------------------------------------------------------
E|-----------------------------------------------------------------


  Guitar 2 					harmonics				
E|-----------------------------------------------------------------
B|-6---6--4---6---6--4--6>8^---6---6--4---6--4--(12)--(ring)-------
G|-5---5--5---5---5--5---------5---5--5---5--5---------------------
D|-----------------------------------------------------------------
A|-----------------------------------------------------------------
E|-----------------------------------------------------------------



  Verse
E|-----------------------------------------------------------------
B|-4-4-4-4---------------------------------------------------------
G|-5-5-5-5---------------------------------------------------------
D|-5-5-5-5--(so on)------------------------------------------------
A|-3-3-3-3---------------------------------------------------------
E|-----------------------------------------------------------------
   We get some rules to follow, That and this, These and tho-


E|-----------------------------------------------------------------
B|-4-4-4-4-4-4--4-4-4-4-4-4-4-4-4-4-4-4----------------------------
G|-4-4-4-4-4-4--5-5-5-5-5-5-5-5-5-5-5-5--(cont & enter riff 1)-----
D|-4-4-4-4-4-4--5-5-5-5-5-5-5-5-5-5-5-5----------------------------
A|-2-2-2-2-2-2--3-3-3-3-3-3-3-3-3-3-3-3----------------------------
E|-----------------------------------------------------------------
   -se                   no one knows



~ I only have this much down, took me like two seconds, it sounds right, maybe some details missing because there are two guitarists
  but I hope it helps.

									Look for my new band soon on the internet 
														Mustafa
            
Submit corrections

comments powered by Disqus
↑ Back to top | Queens Of The Stone Age Tabs for No One Knows. Lyrics for acoustic guitar and electric guitar. Tablatures and chords are parodies/interpretations of the original songs. You may use it for private study, scholarship, research or language learning purposes only