» » »

Millionare Bass tabs (ver.1)

Artists:  A B C D E F G H I J K L M N O P Q R S T U V W X Y Z # 

Millionare Bass tabs (ver.1)

Queens Of The Stone Age
Rating:
0/5 (0 votes)

Hard to play? Try these video lessons and learn fast.
                Artist- Queens Of The Stoneage
Track- You Think I Anit Worth A Dollar But I Feel Like A Millionaire
Tuning- Standard

Intro (Drums And Guitar)

Verse 1
G|----------------------------------|
D|----------------------------------|
A|--8-10----------------------------| x8
E|-------0-0-0-0-0-0-0-0-0-0-0-0-0-0|

Chours
G|--------------------------------|
D|--------------------------------|
A|--------------------------------| x2
E|--5-5-5-3--3-3-3-3-3-3-3-3-3-3-3|

Verse 2
G|----------------------------------|
D|----------------------------------|
A|--8-10----------------------------| x4
E|-------0-0-0-0-0-0-0-0-0-0-0-0-0-0|

G|------------------------------------------------------------------------------|
D|------------------------------------------------------------------------------|
A|--8-10--------------------------------------8-10------------------------------|
E|-------0-0-0-0-0-0-0-0-0-0-0-0-0-0--10-8-10--------0-0-0-0-0-0-0-0-0-0-0-0-0-0|

G|----------------------------------|
D|----------------------------------|
A|--8-10----------------------------| x4
E|-------0-0-0-0-0-0-0-0-0-0-0-0-0-0|

Chours
G|--------------------------------|
D|--------------------------------|
A|--------------------------------| x2
E|--5-5-5-3--3-3-3-3-3-3-3-3-3-3-3|

Verse 3
G|----------------------------------|
D|----------------------------------|
A|--8-10----------------------------| x8
E|-------0-0-0-0-0-0-0-0-0-0-0-0-0-0|

Chours
G|--------------------------------|
D|--------------------------------|
A|--------------------------------| x2
E|--5-5-5-3--3-3-3-3-3-3-3-3-3-3-3|

!Pause!

Verse 4
G|----------------------------|
D|----------------------------|
A|----------------------------|
E|-0-0-0-0-0-0-0-0-0-0-0-0-0-0|

G|----------------------------------|
D|----------------------------------|
A|--8-10----------------------------|
E|-------0-0-0-0-0-0-0-0-0-0-0-0-0-0|

G|------------------------------------------------------------------------------|
D|------------------------------------------------------------------------------|
A|--8-10--------------------------------------8-10------------------------------|
E|-------0-0-0-0-0-0-0-0-0-0-0-0-0-0--10-8-10--------0-0-0-0-0-0-0-0-0-0-0-0-0-0|

G|----------------------------------|
D|----------------------------------|
A|--8-10----------------------------| x4
E|-------0-0-0-0-0-0-0-0-0-0-0-0-0-0|

Chours
G|--------------------------------|
D|--------------------------------|
A|--------------------------------|
E|--5-5-5-3--3-3-3-3-3-3-3-3-3-3-3|

G|------------------------------------------------|
D|------------------------------------------------|
A|------------------------------------------------|
E|--5-5-5-3--3-3-3-3-3-3-3-3-3-3-3-3-3-3-3-3-3-3-0|

Thats it. For a sample of this bass track, check out my site 
PB RULE!!!!!! JS
            
Hard to play? Try these video lessons and learn fast. | Correct




comments powered by Disqus
↑ Back to top | Tablatures and chords are parodies/interpretations of the original songs. You may use it for private study, scholarship, research or language learning purposes only