>
 >
Mexicola

Mexicola Bass Tabs

Queens Of The Stone Age - Mexicola chords, tabs, tablatures, lyrics

Guitar lessons | Add/correct | Request | Top 50 tabs Artists:  A B C D E F G H I J K L M N O P Q R S T U V W X Y Z 0-9

Mexicola Bass Tabs – Queens Of The Stone Age

CD, Sheet music, Poster

Do you like Mexicola? Share with your friends now
Bass TabsTabsTabs v2
#------------------------------------------------------------------------------##

                               MEXICOLA (Bassline)
                     As recorded by Queens Of The Stone Age
                  (From the 1998 Album QUEENS OF THE STONE AGE)

Words and Music by Joshua Homme


Gtr I (C F Bb Eb) - 'Josh (Bass, Heavy Distortion)'

 Intro
  Q=110
 2/4        4/4
  Gtr I
  Q   E  E   E E E E E E E E   E E E E E E E E
|----------|-----------------|-----------------|
|----------|-----------------|-----------------|
|----------|-----------------|---6-------------|
|-5s=12\-0-|-0-0-0-0-0-0-0-0-|-0---0-0-0-0-0-0-|


  E E E E E E E E   E E E E E E E E
|-----------------|-------------------|
|-----------------|-------------------|
|-----------------|---6---------------|
|-0-0-0-0-0-0-0-0-|-0---0-0-0-0-0-5/--|


  E E E E E E E E   E E E E E E E E   E E E E E E E E   E E E E  E  E  E  E
|-----------------|-----------------|-----------------|----------------------|
|-----------------|-------------8---|-----------------|------------------13--|
|-----7---6-----7-|---6-----------7-|-----7---6-------|---6-----11-13-14-----|
|-0-0---0---0-0---|-0---0-0-4h6-----|-0-0---0---0-0-0-|-0---0-0--------------|


    E E E E E E E E   E E E E E E E E   E E E E E E E E   E E E E E E E E  4x
||------------------|-----------------|-----------------|------------------||
||o-----------------|-------------8---|-----------------|-------------8---o||
||o-----7---6-----7-|---6-----------7-|-----7---6-----7-|---6-----------7-o||
||--0-0---0---0-0---|-0---0-0-4h6-----|-0-0---0---0-0---|-0---0-0-4h6------||


 Pre-Verse
  E E E. S E Q  E   E E E. S E E Q    E E E. S S S Q  E   E E E. S E Q  E
|-----------------|-----------------|-------------------|-----------------|
|-----------------|-----------------|-------------------|-----------------|
|-----------------|-----------------|-7-7-7--7-7-7-7--7-|-7-7-7--7-7-7--7-|
|-3-3-3--3-3-3--3-|-3-3-3--3-3-3-3--|-------------------|-----------------|


  E E E. S E Q  E   E E E. S E E Q    E E E. S S S Q  E   E E E. S E Q  E
|-----------------|-----------------|-------------------|-----------------|
|-----------------|-----------------|-------------------|-----------------|
|-----------------|-----------------|-7-7-7--7-7-7-7--7-|-7-7-7--7-7-7--7-|
|-3-3-3--3-3-3--3-|-3-3-3--3-3-3-3--|-------------------|-----------------|


   Verse
     E  E  E.  S  E  Q   E    E  E  E.  S  E  E  E  E
||-------------------------|--------------------------|
||o------------------------|--------------------------|
||o-10-10-10--10-10-10--10-|-10-10-10--10-10-10-10-10-|
||-------------------------|--------------------------|


  E E E. S S S Q  E   E E E. S E Q  E   4x
|-------------------|-------------------||
|-------------------|------------------o||
|-7-7-7--7-7-7-7--7-|-7-7-7--7-7-7--7--o||
|-------------------|-------------------||


   Pre-Chorus
    E E E. S E Q  E   E E E. S E E Q    E E E. S S S Q  E   E E E. S E Q  E   4x
||------------------|-----------------|-------------------|-------------------||
||o-----------------|-----------------|-------------------|------------------o||
||o-----------------|-----------------|-7-7-7--7-7-7-7--7-|-7-7-7--7-7-7--7--o||
||--3-3-3--3-3-3--3-|-3-3-3--3-3-3-3--|-------------------|-------------------||


   Chorus
    E E E E E  E E  E   E E E E E  E E  E
||--------------------|-------------------|
||o-------------------|-------------------|
||o-----7-------------|-----7-------------|
||--0-0---0-0-10-0-10-|-0-0---0-0-10-0-10-|


  E E E E E  E E  E   E E E E E  E E  E
|-------------------|--------------------||
|-------------------|-------------------o||
|-----7-------------|-----7-------------o||
|-0-0---0-0-10-0-10-|-0-0---0-0-10-0-10--||


  E E E. S E Q  E   E E E. S E E Q    E E E. S S S Q  E   E E E. S E Q  E
|-----------------|-----------------|-------------------|-----------------|
|-----------------|-----------------|-------------------|-----------------|
|-----------------|-----------------|-7-7-7--7-7-7-7--7-|-7-7-7--7-7-7--7-|
|-3-3-3--3-3-3--3-|-3-3-3--3-3-3-3--|-------------------|-----------------|


   Verse
     E  E  E.  S  E  Q   E    E  E  E.  S  E  E  E  E
||-------------------------|--------------------------|
||o------------------------|--------------------------|
||o-10-10-10--10-10-10--10-|-10-10-10--10-10-10-10-10-|
||-------------------------|--------------------------|


  E E E. S S S Q  E   E E E. S E Q  E   4x
|-------------------|-------------------||
|-------------------|------------------o||
|-7-7-7--7-7-7-7--7-|-7-7-7--7-7-7--7--o||
|-------------------|-------------------||


   Pre-Chorus
    E E E. S E Q  E   E E E. S E E Q    E E E. S S S Q  E   E E E. S E Q  E   4x
||------------------|-----------------|-------------------|-------------------||
||o-----------------|-----------------|-------------------|------------------o||
||o-----------------|-----------------|-7-7-7--7-7-7-7--7-|-7-7-7--7-7-7--7--o||
||--3-3-3--3-3-3--3-|-3-3-3--3-3-3-3--|-------------------|-------------------||


 Bridge
 2/4       4/4
  Q  Q      E E E E E E E E   E E E E E E E E
|-------||------------------|-----------------|
|-------||o-----------------|-------------8---|
|-------||o-----7---6-----7-|---6-----------7-|
|-0-----||--0-0---0---0-0---|-0---0-0-4h6-----|


  E E E E E E E E   E E E E E E E E   4x
|-----------------|-------------------||
|-----------------|-------------8----o||
|-----7---6-----7-|---6-----------7--o||
|-0-0---0---0-0---|-0---0-0-4h6-------||


   Chorus
    E E E E E  E E  E   E E E E E  E E  E
||--------------------|-------------------|
||o-------------------|-------------------|
||o-----7-------------|-----7-------------|
||--0-0---0-0-10-0-10-|-0-0---0-0-10-0-10-|


  E E E E E  E E  E   E E E E E  E E  E  4x
|-------------------|--------------------||
|-------------------|-------------------o||
|-----7-------------|-----7-------------o||
|-0-0---0-0-10-0-10-|-0-0---0-0-10-0-10--||


  E E E E E  E E  E   E E E E E  E E  E
|-------------------|-------------------|
|-------------------|-------------------|
|-------------------|-------------------|
|-0-0-0-0-0-10-0-10-|-0-0-0-0-0-10-0-10-|


  E E E E E  E E  E   E E E E E  E E  E
|-------------------|--------------------|
|-------------------|--------------------|
|-------------------|--------------------|
|-0-0-0-0-0-10-0-10-|-0-0-0-0-0-10-0-10--|


  E E E E E  E E  E   E E E E E  E E  E
|-------------------|-------------------|
|-------------------|-------------------|
|-------------------|-------------------|
|-0-0-0-0-0-10-0-10-|-0-0-0-0-0-10-0-10-|


  E E E E E  E E  E   E E E E E  Q   +E
|-------------------|----------------------*|
|-------------------|----------------------*|
|-------------------|----------------------*|
|-0-0-0-0-0-10-0-10-|-0-0-0-0-0-10--(10)\--*|


Duration Legend
---------------
W - whole; H - half; Q - quarter; E - 8th; S - 16th; T - 32nd; X - 64th; a - acciaccatura
+ - note tied to previous; . - note dotted; .. - note double dotted
Uncapitalized letters represent notes that are staccato (1/2 duration)
Irregular groupings are notated above the duration line
Duration letters will always appear directly above the note/fret number it represents the
duration for.  Duration letters with no fret number below them represent rests.  Multi-
bar rests are notated in the form Wxn, where n is the number of bars to rest for.  Low
melody durations appear below the staff

Tablature Legend
----------------
 h   - hammer-on
 p   - pull-off
 b   - bend
 pb  - pre-bend
 r   - bend release (if no number after the r, then release immediately)
 /\  - slide into or out of (from/to "nowhere")
 s   - legato slide
 S   - shift slide
  - natural harmonic
[n]  - artificial harmonic
n(n) - tapped harmonic
 ~   - vibrato
 tr  - trill
 T   - tap
 TP  - trem. picking
 PM  - palm muting
\n/  - tremolo bar dip; n = amount to dip
 \n  - tremolo bar down
 n/  - tremolo bar up
/n\  - tremolo bar inverted dip
 =   - hold bend; also acts as connecting device for hammers/pulls
 <>  - volume swell (louder/softer)
 x   - on rhythm slash represents muted slash
 o   - on rhythm slash represents single note slash

Misc Legend
-----------
 |  - bar
||  - double bar
||o - repeat start
o|| - repeat end
*|  - double bar (ending)
 :  - bar (freetime)
 $  - Segno
 &  - Coda
Tempo markers -  = BPM(8/16=s8/s16), where s8 = swing 8ths, s16 = swing 16ths





Comments


Popular Queens Of The Stone Age tabs & chords
I Wanna Make It Wit Chu 2 Bass Tabs
Little Sister Live Bass Tabs
Run Pig Run Bass Tabs
Better Living Through Chemistry 1 Tabs
I Wanna Make It Wit Chu 2 Tabs
If Only 1 Tabs
Lightning Song Intro Tabs
Long Slow Goodbye Tabs
Sick Sick Sick 2 Tabs
Turnin On The Screw 1 Tabs


Song lyrics



↑ Back to top | Tablatures and chords are parodies/interpretations of the original songs. You may use it for private study, scholarship, research or language learning purposes only
© 2014 AZChords.com Contact us | Privacy policy | DMCA | Add/correct tabs | Request tabs | Top 50 tabs