>
 >
Mexicola

Mexicola Guitar Tabs

Queens Of The Stone Age - Mexicola chords, tabs, tablatures, lyrics

Guitar lessons | Add/correct | Request | Top 50 tabs Artists:  A B C D E F G H I J K L M N O P Q R S T U V W X Y Z 0-9

Mexicola Guitar Tabs – Queens Of The Stone Age

CD, Sheet music, Poster

Do you like Mexicola? Share with your friends now
Bass TabsTabsTabs v2
X===============================PLEASE NOTE=====================================
X This tab belongs to its author and represents his interpretation of the song. 
X You may only use this tab for private study, scholarship, or research. 
X Do not change, deface, mutilate, or in any other way alter this tab. 
X You must email the author first if you want to use this tab on your site.
X===============================================================================

Mexicola 

Tuning - C F Bb Eb G C

intro riff 1 (after phat bass):
-------------------------------|
--------------------------7----|
-------9---8-----9-8------9b---|
-------9---8-----9-8-----------|
-------7---6-----7-6-----------|
---0-0---0---0-0-----0-0-0-----|

intro riff 2:
----------------------------------|
-----------------------------7----|
-------9-8h9----9-8h9--------9b---|
-------9-8h9----9-8h9-------------|
-------7-6h7----7-6h7-------------|
---0-0--0------0-------0-0-0------|

riff 1:
-----------------------------------------------------|
------------------------------7----------------------|
---12-12-12-12-12-12-12-12-12-9b-9-9-9-9-9-9-9-9-9---|
---12-12-12-12-12-12-12-12-12----9-9-9-9-9-9-9-9-9---|
---10-10-10-10-10-10-10-10-10----7-7-7-7-7-7-7-7-7---|
-----------------------------------------------------|

riff 2:
----------------------------------------|
---------------------7------------------|
---------------------9b-9-9-9-9-9-9-9---|
---5-5-5-5-5-5-5-5-5----9-9-9-9-9-9-9---|
---5-5-5-5-5-5-5-5-5----7-7-7-7-7-7-7---|
---3-3-3-3-3-3-3-3-3--------------------|

main riff 1:
-------------------------|
-------------------------|
--12-12-12-12--9-9-9-9---|
--12-12-12-12--9-9-9-9---|
--10-10-10-10--7-7-7-7---|
-------------------------|

main riff 2:
--------------------------|
--------------------------|
--------------9-9-9-9-9---|
---5-5-5-5-5--9-9-9-9-9---|
---5-5-5-5-5--7-7-7-7-7---|
---3-3-3-3-3--------------|

fill 1:
-----------------|
-----------------|
-----------------|
-----------------|
---5/7-10-7-10---|
-----------------|

fill 2:
-------------------|
-------------------|
-------------------|
-------------------|
---12b--10h12------|
--------------12---|

chorus:
-------------------------|
-------------------------|
-------11-----12-12-12---|
-------11-----12-12-12---|
--------9-----10-10-10---|
---0-0----0-0------------|

--------------------|
---14p12-14p12-14---|
--------------------|
--------------------|
--------------------|
--------------------|

intro riff 1 3x

intro riff 2 1x

intro riff 1 2x

intro riff 2 1x

intro riff 1 1x

riff 1 2x

main riff 1:
fill 1
Setting sun deals hands of gold

fill 2
There’s velvet eyes in Mexico

fill 1
Just a fall away
And all she said was true

fill 1
Speak in tongues, speak in lies
Drooling livers, born to die

fill 2
It’s a wonder that those guns don’t point at you

main riff 2 2x

chorus:
Keep sayin, go on, keep sayin, go on, keep sayin, you won't live forever

riff 2 1x

main riff 1:
fill 2
Point and shoot, I know just what you mean

fill 1
In a world that’s full of *** and gasoline, baby

fill 2
One dog’s dead one’s on the phone
Just leave a lung or leave it alone

fill 2
It’s that same on song again
I hate it cause it’s true

main riff 2 2x

intro riff 1 3x

intro riff 2 1x

intro riff 1 1x

intro riff 2 1x

intro riff 1 1x

intro riff 2 1x

chorus:
Keep sayin, go on, keep sayin, go on, keep sayin, you won't live forever

outro solo (played over the chorus riff):
--------------------------------------------------------------|
--------------------------------------------------------------|
---------------------------14b--------------------------14b---|
---14p12-14p12-14p12-12h14------14p12-14p12-14p12-12h14-------|
--------------------------------------------------------------|
--------------------------------------------------------------|

-----------------------------------------------15----------18--18-15------|
---14b--14p12----------------------------15h17----15-17-15-----------17---|
--------------12--12h14--------14p12-12-----------------------------------|
------------------------14--14--------------------------------------------|

---15-------------------------------------------------------------------|
------17-15-17-15------------------------------------14b--14p12-14p12---|
------------------15--12-14-12--15-12-12-------12h14--------------------|
-----------------------------------------12h14--------------------------|


chorus riff until end





Comments


Popular Queens Of The Stone Age tabs & chords
Little Sister Bass Tabs
All The Same Tabs
I Sat By The Ocean 3 Tabs
In My Head 1 Tabs
Monsters In The Parasol 2 Tabs
Never Say Never Tabs
No One Knows 10 Tabs
Paranoid Tabs
Smooth Sailing 1 Tabs
I Wanna Make It Wit Chu Ukulele


Song lyrics



↑ Back to top | Tablatures and chords are parodies/interpretations of the original songs. You may use it for private study, scholarship, research or language learning purposes only
© 2014 AZChords.com Contact us | Privacy policy | DMCA | Add/correct tabs | Request tabs | Top 50 tabs