>
 >
I Think I Lost My Headache 3

I Think I Lost My Headache 3 Guitar Tabs

Queens Of The Stone Age - I Think I Lost My Headache 3 chords, tabs, tablatures, lyrics

Guitar lessons | Add/correct | Request | Top 50 tabs Artists:  A B C D E F G H I J K L M N O P Q R S T U V W X Y Z 0-9

I Think I Lost My Headache 3 Guitar Tabs – Queens Of The Stone Age

CD, Sheet music, Poster

Do you like I Think I Lost My Headache 3? Share with your friends now
Bass TabsBass Tabs v2TabsTabs v2Tabs v3Tabs v4
Classic QOTSA song. when i saw them live this was the last song they played. everyone on
this site is making the main riff more work then it actually is, because you can play it
off of an F chord. There's a piano in here somewhere (or it might even be a steal drum),
but i figure this is cluttered enough as it is

Tuning:
C,F,Bb,Eb,G,C 

Main Riff:

Guitar I: Heavy Distortion w/Low Tone 
|--------------------------------|
|--------------------------------|
|-----8--6-------6---5-----------|
|---7------7---5-------7-----7---|
|--------------------------8-----|
|-5------------------------------| 

|-------------------------------|------------------------------|
|-------------------------------|------------------------------|
|----8--6-------6---5-----------|----8--6-------6---5----------|
|--7------7---5-------7-----7---|--7------7---5-------7-----7--|
|-------------------------8-----|-------------------------8----|
|-------------------------------|------------------------------|

                                Guitar II 
                                |--16------------------------------|
                                |-----16~------------------15^-13--|
                                |----------------------------------|
                                |----------------------------------|
                                |----------------------------------|
                                |----------------------------------|   
Guitar I
|-------------------------------|------------------------------|
|-------------------------------|------------------------------|
|----8--6-------6---5-----------|----8--6-------6---5----------|
|--7------7---5-------7----8----|--7------7---5-------7-----7--|
|------------------------8---8--|-------------------------8----|
|-------------------------------|------------------------------|

                                Slide (follows each rhythm note)
                                |---------------------------------|
                                |-10/16--14\10--8/14-13\10--5/10--|
                                |---------------------------------|
                                |---------------------------------|
                                |---------------------------------|
                                |---------------------------------|
Guitar II
|---------------------------------------------16---------------|
|-----------------------16^---------------------16~------------|
|---------------------------14~--------------------------------|
|--------------------------------------------------------------|
|--------------------------------------------------------------|
|--------------------------------------------------------------|

Guitar I 
|-------------------------------|------------------------------|
|-------------------------------|------------------------------|
|----8--6-------6---5-----------|----8--6-------6---5----------|
|--7------7---5-------7-----7---|--7------7---5-------7-----7--|
|-------------------------8-----|-------------------------8----|
|-------------------------------|------------------------------|

Slide
|---------------------------------|---------------------------------|
|-10/16--14\10--8/14-13\10--5/10--|-10/16--14\10--8/14-13\10--5/10--|
|---------------------------------|---------------------------------|
|---------------------------------|---------------------------------|
|---------------------------------|---------------------------------|
|---------------------------------|---------------------------------|

Guitar II
|-------------------------------------------------16-----------|
|--------------------15-13--------------------------16--16~----|
|--------------------------14p12h14~-----------------------14--|
|--------------------------------------------------------------|
|--------------------------------------------------------------|
|--------------------------------------------------------------|

Guitar I
|------------------------|
|------------------------|
|----8--6-------6---5----|
|--7------7---5-------8--|
|------------------------|
|------------------------| 

Guitar II
|------------------------|
|-------------16~~~------|
|------------------------|
|------------------------|
|------------------------|
|------------------------|

Slide
|------------------------------|
|-10/16--14\10--8/14-13\10\8~~-|
|------------------------------|
|------------------------------|
|------------------------------|
|------------------------------|

Verse

Guitar I
|---------------------------------------------------------------|
|---------------------------------------------------------------|
|---------------------------------------------------------------|
|---------------------------------------------------------------|
|-7---7-7--7---7--7--8-8/11-11v---7---7-7--7--7--7--8-8/11-11v--|1x          
|-5---5-5--5---5--5--6-6/9--9v----5---5-5--5--5--5--6-6/9--9v---|alone 

|---------------------------------------------------------------|
|---------------------------------------------------------------|
|---------------------------------------------------------------|
|---------------------------------------------------------------|
|-7---7-7--7---7--7--8-8/11-11v---7---7-7--7--7--7--8-8/11-11v--|
|-5---5-5--5---5--5--6-6/9--9v----5---5-5--5--5--5--6-6/9--9v---|

Slide
|---------------------------------------------------------------|
|-13~~~~~------------//17~~~~~-\\13~~~~~~~~~~----//17~~~~~~-----|
|---------------------------------------------------------------|
|---------------------------------------------------------------|
|---------------------------------------------------------------|
|---------------------------------------------------------------| 

      You Know Why---------       They Call & Just Let it Ring 
|---------------------------------------------------------------|
|---------------------------------------------------------------|
|---------------------------------------------------------------|
|---------------------------------------------------------------|
|-7---7-7--7---7--7--8-8/11-11v---7---7-7--7--7--7--8-8/11-11v--|
|-5---5-5--5---5--5--6-6/9--9v----5---5-5--5--5--5--6-6/9--9v---|

|---------------------------------------------------------------|
|-13~~~~~------------//17~~~~~-\\13~~~~~~~~~~----//17~~~~~~-----|
|---------------------------------------------------------------|
|---------------------------------------------------------------|
|---------------------------------------------------------------|
|---------------------------------------------------------------|

     No Reply-----------------------
|----------------------------------------------------------------|
|----------------------------------------------------------------|
|----------------------------------------------------------------|
|----------------------------------------------------------------|
|-7---7-7--7---7--7--8-8/11-11v---7---7-7--7--7--7--12-10-7-10^--|
|-5---5-5--5---5--5--6-6/9--9v----5---5-5--5--5--5--10--8-5-8^---|

|---------------------------------------------------------------|
|-13~~~~~------------//17~~~~~-\\13~~~~~~~~~~----//18~~~~~~-----|
|---------------------------------------------------------------|
|---------------------------------------------------------------|
|---------------------------------------------------------------|
|---------------------------------------------------------------| 

    The Door Was Open I Swear       Ain't No Use in Pickin' Up
|---------------------------------------------------------------|
|---------------------------------------------------------------|
|---------------------------------------------------------------|
|---------------------------------------------------------------|
|-7---7-7--7---7--7--8-8/11-11v---7---7-7--7--7--7--8-8/11-11v--|
|-5---5-5--5---5--5--6-6/9--9v----5---5-5--5--5--5--6-6/9--9v---|

|---------------------------------------------------------------|
|-16~~~~~------------//17~~~~~-\\13~~~~~~~~~~----//17~~~~~~-----|
|---------------------------------------------------------------|
|---------------------------------------------------------------|
|---------------------------------------------------------------|
|---------------------------------------------------------------| 

    You Know Why-----------------------
|-----------------------------------------------------------|
|-----------------------------------------------------------|
|-----------------------------------------------------------|
|-----------------------------------------------------------|
|-7---7-7--7---7--7--8-8/11-11v---7---7-7--7--7--7--8~~~~~--|
|-5---5-5--5---5--5--6-6/9--9v----5---5-5--5--5--5--6~~~~~--|

|------------------------------------------------------------------|
|-13~~~~~------------//17~~~~~-\\13~~~~~~~~~~-------\\\\(10)~~~~~--|
|------------------------------------------------------------------|
|------------------------------------------------------------------|
|------------------------------------------------------------------|
|------------------------------------------------------------------|

Chorus
Guitar I
(Guitar II just single strums the same chords)

    It's All My Head I Know-------   
    Or So They Tell Me So--------   
    Until My Head Explodes----
|---------------------------------|
|---------------------------------|
|-----14----14-------13-----------|
|--------14-------13----13----10--|
|-12-----------11-----------8-----|
|---------------------------------|

Guitar II

        Into My Head it Goes----
|--------------------------------------|
|--------------------------------------|
|-----14----14-------13----------------|
|--------14-------13----13--16~~~~~~~--|
|-12-----------11-----------14~~~~~~~--|
|--------------------------------------|

Verse II
|--------------------------------------------------------------------|
|--------------------------------------------------------------------|
|--------------------------------------------------------------------|
|--------------------------------------------------------------------|
|-7---7-7--7---7--7--8-8/11-11v---7---7-7--7--7--7-13-11-7-11-13-11--|1x     
|-5---5-5--5---5--5--6-6/9--9v----5---5-5--5--5--5-11--9-5--9-11--9--|alone 

      Tastes So Good--------         Oh & I Knew it Would 
|---------------------------------------------------------------|
|---------------------------------------------------------------|
|---------------------------------------------------------------|
|---------------------------------------------------------------|
|-7---7-7--7---7--7--8-8/11-11v---7---7-7--7--7--7--8-8/11-11v--|
|-5---5-5--5---5--5--6-6/9--9v----5---5-5--5--5--5--6-6/9--9v---|

|---------------------------------------------------------------|
|-13~~~~~------------//17~~~~~-\\13~~~~~~~~~~----//17~~~~~~-----|
|---------------------------------------------------------------|
|---------------------------------------------------------------|
|---------------------------------------------------------------|
|---------------------------------------------------------------| 

 Tastes So Good----------------------
|--------------------------------------------------------------------|
|--------------------------------------------------------------------|
|--------------------------------------------------------------------|
|--------------------------------------------------------------------|
|-7---7-7--7---7--7--8-8/11-11v---7---7-7--7--7--7-11-13-16-11-9-11--|
|-5---5-5--5---5--5--6-6/9--9v----5---5-5--5--5--5-9--11-14--9-7--9--|

|---------------------------------------------------------------|
|-13~~~~~------------//18~~~~~-\\17~~~~~~~~~~----//18~~~~~~-----|
|---------------------------------------------------------------|
|---------------------------------------------------------------|
|---------------------------------------------------------------|
|---------------------------------------------------------------|

    Burn Like a Match House--      Medicate Just to make it Soft
|---------------------------------------------------------------|
|---------------------------------------------------------------|
|---------------------------------------------------------------|
|---------------------------------------------------------------|
|-7---7-7--7---7--7--8-8/11-11v---7---7-7--7--7--7--8-8/11-11v--|
|-5---5-5--5---5--5--6-6/9--9v----5---5-5--5--5--5--6-6/9--9v---|

|---------------------------------------------------------------|
|-13~~~~~------------//17~~~~~-\\13~~~~~~~~~~----//17~~~~~~-----|
|---------------------------------------------------------------|
|---------------------------------------------------------------|
|---------------------------------------------------------------|
|---------------------------------------------------------------| 

      Love is Blind------------------
|--------------------------------------------------------------------|
|--------------------------------------------------------------------|
|--------------------------------------------------------------------|
|--------------------------------------------------------------------|
|-7---7-7--7---7--7--8-8/11-11v---7---7-7--7--7--7-13-11-7-11-13-11--|      
|-5---5-5--5---5--5--6-6/9--9v----5---5-5--5--5--5-11--9-5--9-11--9--|

|--------------------------------------------------------------------|
|-13~~~~~------------//17~~~~~-\\13~~~~~~~~~~----------13^///(20)~~--|
|--------------------------------------------------------------------|
|--------------------------------------------------------------------|
|--------------------------------------------------------------------|
|--------------------------------------------------------------------|

     Catch and Release Me----     What the Hell Were They Thinking Of
|---------------------------------------------------------------|
|---------------------------------------------------------------|
|---------------------------------------------------------------|
|---------------------------------------------------------------|
|-7---7-7--7---7--7--8-8/11-11v---7---7-7--7--7--7--8-8/11-11v--|
|-5---5-5--5---5--5--6-6/9--9v----5---5-5--5--5--5--6-6/9--9v---|

|---------------------------------------------------------------|
|-13~~~~~------------//17~~~~~-\\13~~~~~~~~~~----//17~~~~~~-----|
|---------------------------------------------------------------|
|---------------------------------------------------------------|
|---------------------------------------------------------------|
|---------------------------------------------------------------| 

You Know Why-----------------------
|-----------------------------------------------------------|
|-----------------------------------------------------------|
|-----------------------------------------------------------|
|-----------------------------------------------------------|
|-7---7-7--7---7--7--8-8/11-11v---7---7-7--7--7--7--8~~~~~--|
|-5---5-5--5---5--5--6-6/9--9v----5---5-5--5--5--5--6~~~~~--|

|------------------------------------------------------------------|
|-13~~~~~------------//17~~~~~-\\13~~~~~~~~~~-------\\\\(10)~~~~~--|
|------------------------------------------------------------------|
|------------------------------------------------------------------|
|------------------------------------------------------------------|
|------------------------------------------------------------------|

Chorus
Guitar I
(Guitar II just single strums the same chords)

    It's All My Head I Know-------   
    Or So They Tell Me So--------   
    Until My Head Explodes----
|---------------------------------|
|---------------------------------|
|-----14----14-------13-----------|
|--------14-------13----13----10--|
|-12-----------11-----------8-----|
|---------------------------------|

Guitar II

        Into My Head it Goes----
|--------------------------------------|
|--------------------------------------|
|-----14----14-------13----------------|
|--------14-------13----13--16~~~~~~~--|
|-12-----------11-----------14~~~~~~~--|
|--------------------------------------|

-Long Pause-

Guitar I
|--------------------------------|
|--------------------------------|
|-----8--6-------6---5-----------|
|---7------7---5-------7-----7---|
|--------------------------8-----|
|-5------------------------------| 

|-------------------------------|------------------------------|
|-------------------------------|------------------------------|
|----8--6-------6---5-----------|----8--6-------6---5----------|
|--7------7---5-------7-----7---|--7------7---5-------7-----7--|
|-------------------------8-----|-------------------------8----|
|-------------------------------|------------------------------|

|-------------------------------|------------------------------|
|-------------------------------|------------------------------|
|----8--6-------6---5-----------|----8--6-------6---5----------|
|--7------7---5-------7----8----|--7------7---5-------7-----7--|
|------------------------8---8--|-------------------------8----|
|-------------------------------|------------------------------|
                  
                                Slide
                                |---------------------------------|
                                |-10/16--14\10--8/14-13\10--5/10--|
                                |---------------------------------|
                                |---------------------------------|
                                |---------------------------------|
                                |---------------------------------|

Guitar I
|----------------------------------|----------------------------------|
|----------------------------------|----------------------------------|
|----8--6-5h6v---6--5h6v-----------|----8--6-5h6v---6--5h6v-----------|
|--7-----------5----------7---8----|--7-----------5----------7-----7--|
|---------------------------8---8--|----------------------------8-----|
|----------------------------------|----------------------------------|

Slide
|---------------------------------|---------------------------------|
|-10/16--14\10--8/14-13\10--5/10--|-10/16--14\10--8/14-13\10--5/10--|
|---------------------------------|---------------------------------|
|---------------------------------|---------------------------------|
|---------------------------------|---------------------------------|
|---------------------------------|---------------------------------|

Guitar I
|------------------------------------|
|------------------------------------|
|----8--6-------6---5-------6h8-8^v--|
|--7------7---5-------7-5h7----------|
|------------------------------------|
|------------------------------------|

Slide
|---------------------------------|
|-10/16--14\10--8/14-13\10--5/10--|
|---------------------------------|
|---------------------------------|
|---------------------------------|
|---------------------------------|

Drums Pick Up Faster

Guitar I
|------------9------------9*-----|------------9-------------9-------|
|--------------10----------------|--------------10------------10----|
|----8^-6----------5----8---8-6--|----8--6----------5-----6------8--|
|--7------7----------7-7---------|--7------7-----------7-7----------|
|--------------------------------|----------------------------------|
|--------------------------------|----------------------------------|

Slide
|---------------------------------|---------------------------------|
|-10/16--14\10--8/14-13\10--5/10--|-10/16--14\10--8/14-13\10--5/10--|
|---------------------------------|---------------------------------|
|---------------------------------|---------------------------------|
|---------------------------------|---------------------------------|
|---------------------------------|---------------------------------|

and on and on and on and fucking on. you get the picture, just be creative with the
fills, cause otehrwise it's all right above you. do this part about 50 more times
(at least, and that's not sarcasm). enjoy!





Comments


Popular Queens Of The Stone Age tabs & chords
Precious And Grace Bass Tabs
This Lullaby Chords
All The Same Tabs
Avon 1 Tabs
Feel Good Hit Of The Summer 3 Tabs
For The Dead Tabs
How To Handle A Rope Tabs
I Never Came 2 Tabs
In The Fade 6 Tabs
Walkin On Sidewalks Tabs


Song lyrics



↑ Back to top | Tablatures and chords are parodies/interpretations of the original songs. You may use it for private study, scholarship, research or language learning purposes only
© 2014 AZChords.com Contact us | Privacy policy | DMCA | Add/correct tabs | Request tabs | Top 50 tabs