» » »

In The Fade Bass tabs (ver.1)

Artists:  A B C D E F G H I J K L M N O P Q R S T U V W X Y Z # 

In The Fade Bass tabs (ver.1)

Queens Of The Stone Age
Rating:
0/5 (0 votes)

Hard to play? Try these video lessons and learn fast.
                It took a while to tab this, there are lots of
fills which were hard pick out but I got all of them in
the end, bar the last chorus.

Bass enters at :42 seconds


Slide up = //
Slide down = \\
Hammeron = (h)
Pulloff = (p)

Main rif
x2

G|-9-9-9-----------|----|-9-9-9-----------|----------|
D|-------9-11-9-11-|----|-------9-11-9-11-|---11-----|
A|-----------------|----|-----------------|----------|
E|-----------------|----|-----------------|------9---|

Fill

G|-9-9-9-----------|----|-9-9-9-----------|---------------------|
D|-------9-11-9-11-|----|-------9-11-9-11-|-------------9-//-11-|
A|-----------------|----|-----------------|-9-//-11-\\----------|
E|-----------------|----|-----------------|---------------------|

G|-9-9-9-----------|----|-9-9-9-----------|------------------------|
D|-------9-11-9-11-|----|-------9-11-9-11-|-11-9---------9-(h)-11--|
A|-----------------|----|-----------------|------11-9--------------|
E|-----------------|----|-----------------|-----------12-----------|

Pre-Chorus x4

G|-----------------|-------------------|-------------|-------------|
D|-----------------|-------------------|-------------|-------------|
A|-----------------|-------------------|-7-7-----4---|-4-4-4-4-----|
E|-5-5-5-5-5-5-5-5-|-5-5-5-5-5-5-5-//-7|-------------|-------------|

Chorus

G|-----------------|-----------------|-----------------|---------------|
D|-----------------|-----------------|---------9-11----|-9--------9-11-|
A|-----------------|-----------------|-9-//-11---------|---11-9-11-----|
E|-5-5-5-5-5-5-5-5-|-5-5-5-5-5-5-5-5-|-----------------|---------------|

G|-----------------|-----------------|-----------------|---------------|
D|-----------------|-----------------|-11-(p)-9---9-11-|-9-------------|
A|-----------------|-----------------|----------11-----|---11-9-11-11--|
E|-5-5-5-5-5-5-5-5-|-5-5-5-5-5-5-5-5-|-----------------|---------------|

G|-----------------|-----------------|-----------------|---------------|
D|-----------------|-----------------|---------9-11----|-9-------------|
A|-----------------|-----------------|-9-//-11---------|---11-9-11-11--|
E|-5-5-5-5-5-5-5-5-|-5-5-5-5-5-5-5-5-|-----------------|---------------|

G|-----------------|-----------------|-------------------|---------------|
D|-----------------|-----------------|-11-(p)-9---9-11-//|-13-11-(p)-9---|
A|-----------------|-----------------|----------11-------|------------11-|
E|-5-5-5-5-5-5-5-5-|-5-5-5-5-5-5-5-5-|-------------------|---------------|

Repeat main rif x3 then theirs some more fills:

G|-9-9-9-----------|----|-9-9-9-----------|---------------------|
D|-------9-11-9-11-|----|-------9-11-9-11-|-------------9-//-11-|
A|-----------------|----|-----------------|-9-//-11-\\----------|
E|-----------------|----|-----------------|---------------------|

Main rif x1

G|-9-9-9-----------|----|-9-9-9-----------|-------------|
D|-------9-11-9-11-|----|-------9-11-9-11-|---11-9------|
A|-----------------|----|-----------------|--------11-9-|
E|-----------------|----|-----------------|-------------|

Main rif x1

G|-9-9-9-----------|----|-9-9-9-----------|----------------|
D|-------9-11-9-11-|----|-------9-11-9-11-|-9----9-11-9----|
A|-----------------|----|-----------------|---11--------11-|
E|-----------------|----|-----------------|----------------|

Main rif x1

G|-9-9-9-----------|----|-9-9-9-----------|----------------|
D|-------9-11-9-11-|----|-------9-11-9-11-|-9-11-9-11-9----|
A|-----------------|----|-----------------|----------------|
E|-----------------|----|-----------------|----------------|

Pre-Chours

Chours

Outro:

repeat till it fades

G|---------6-6-------|
D|-------------7-7---|
A|-0-0-0-0-----------|
E|-------------------|

There you go anyway, I hope that help's you out.
            
Hard to play? Try these video lessons and learn fast. | Correct




comments powered by Disqus
↑ Back to top | Tablatures and chords are parodies/interpretations of the original songs. You may use it for private study, scholarship, research or language learning purposes only