» » »

Hangin Tree Bass tabs (ver.1)

Artists:  A B C D E F G H I J K L M N O P Q R S T U V W X Y Z # 

Hangin Tree Bass tabs (ver.1)

Queens Of The Stone Age
Rating:
0/5 (0 votes)

Hard to play? Try these video lessons and learn fast.
                
I rushed to get this thing done so the rhythm isn't totally correct but you can pick up on the rhythm by ear anyway.  For those who are familiar with the Tool song "Lateralus", the bass line in this song is in the exact same rhythm as the bass in that song.  So if you want a clearer understanding, listen to the verse in Lateralus and u'll soon see.  Enjoy!


Bass Intro
G|-----------------------| 
D|-----------------------| x10
A|-15p0-0-15p0-0-15p0-17-|
E|-----------------------|

Verse x2
G|------------------------|    
D|-19-\\------------------| x3 
A|--------0-0-15-15-17-17-|    
E|------------------------|

G|-------------------------------------------------------------------------|
D|-15--15-15-15-15-15-15--15-15-15-15-15-14--14-14-14-14-14-9--9-9-9-9-9-9-| 
A|-------------------------------------------------------------------------|
E|-------------------------------------------------------------------------|

Buildup/Pre-chorus
G|------------------------|    
D|-19-\\------------------| x2
A|--------0-0-15-15-17-17-|    
E|------------------------|

Chorus
G|-----------------------------------------------------------------------------|
D|-----------------------------------------------------------------------------| x4
A|-15--15-15-15-15h17-14--14-14-14-14-17--17-17-17-17-17h19-16--16-16-16-16-16-| 
E|-----------------------------------------------------------------------------|

G|------------------------------------------------------|
D|------------------------------------------------------| 
A|-15--15-15-15-15--15-15-15--14--14-14-14-14--14-14-14-|
E|------------------------------------------------------|

Intro Riff
G|-----------------------| 
D|-----------------------| x4
A|-15p0-0-15p0-0-15p0-17-|
E|-----------------------|

Verse x2
Buildup/Pre-chorus x1
Chorus
Intro riff x4
Bridge: Play the verse riff x10
Chorus

Finish with the intro riff and you're done.
            
Hard to play? Try these video lessons and learn fast. | Correct




comments powered by Disqus
↑ Back to top | Tablatures and chords are parodies/interpretations of the original songs. You may use it for private study, scholarship, research or language learning purposes only