» » »

Go With The Flow #Standard Bass tabs (ver.1)

Artists:  A B C D E F G H I J K L M N O P Q R S T U V W X Y Z # 

Go With The Flow #Standard Bass tabs (ver.1)

Queens Of The Stone Age
Rating:
0/5 (0 votes)

Hard to play? Try these video lessons and learn fast.
                intro
G|------------------------------------|
D|------------------------------------|
A|------------------------------------|
E|--0-0-0-0-0-0-0-0-0-0-0-0-0-0-0-0---|

riff1
G|--------------------------------------------------------------------|
D|--------------------------------------------------------------------|
A|--------------------------------------------------------------------|
E|--8-8-8-8-8-8-8-8-5-5-5-5-5-5-5-5-0-0-0-0-0-0-0-0-0-0-0-0-0-0-0-0---|

riff2
G|--------------------------------------------------------------------|
D|--------------------------------------------------------------------|
A|--------------------------------5-7-7-7-7-7-7-7-7-7-7-7-7-7-7-7-7---|
E|--8-8-8-8-8-8-8-8-5-5-5-5-5-5-8-------------------------------------|

riff3
G|--------------------------------------------------------------------|
D|--------------------------------------------------------------------|
A|--------------------------------5-7-7-7-7-7-7-7-7-----5-7-7-7-7-7---|
E|--8-8-8-8-8-8-8-8-5-5-5-5-5-5-8-------------------5-7---------------|

riff4
G|--------------------------------------------------------------------|
D|------------------------------------------5---5-7-5-----------------|
A|--------------------------------5-7-7-7-7---7-------7-5-7-----5-7---|
E|--8-8-8-8-8-8-8-8-5-5-5-5-5-5-8---------------------------5-7-------|

riff5
G|--------------------------------------------------------------------|
D|--------------------------------------------------------------------|
A|-----------------------------------------------/7-7-7-7-7-7-7-7-----|
E|--8-8-8-8-8-8-8-8-5-5-5-5-5-5-5-5-0-0-0-0-0-0-0-----------------7---|

CHORUS
G|------------------------------------------------------------------------|
D|--10-10---------------7-7-----7-7---------------------------------------|
A|--------10-10-------------7-7-----7-7-----------------------------------|
E|--------------8-8-8-8-----------------0-0-0-0-0-0-0-0-0-0-0-0-0-0-0-0---| X4

OUTRO
G|--------------------------------------------------------------------|
D|--------------------------------------------------------------------|
A|------------------5-5-5-5-5-5-5-5-7-7-7-7-7-7-7-7-7-7-7-7-7-7-7-7---|
E|--8-8-8-8-8-8-8-8---------------------------------------------------| X5

G|--------------------------------------------------------------------|
D|--------------------------------------------------------------------|
A|------------------5-5-5-5-5-5-5-5----------------/7-7-7-7-7---\-----|
E|--8-8-8-8-8-8-8-8-----------------0-0-0-0-0-0-0-0-------------------|


INTRO  	(intro riff1 riff2)
VERSE1	(riff1 riff1 riff2 riff3 riff1 riff1)
CHORUS
VERSE2  (riff1 riff3 riff4 riff1 riff2 riff1 riff5 riff1)
CHORUS
OUTRO
            
Hard to play? Try these video lessons and learn fast. | Correct




comments powered by Disqus
↑ Back to top | Tablatures and chords are parodies/interpretations of the original songs. You may use it for private study, scholarship, research or language learning purposes only