» » »

Go With The Flow.. Tabs (ver.3)

Artists:  A B C D E F G H I J K L M N O P Q R S T U V W X Y Z # 

Go With The Flow.. Tabs (ver.3)

Queens Of The Stone Age
Rating:
0/5 (0 votes)

Hard to play? Try these video lessons and learn fast.
                Great song by a great band
for any comment, notes, corrections, updates,

thanx, enjoy this tab

 H: hammer on
 P: Pull-off
 ^: bend string
 ~: let ring

Intro/Verse

2nd guitar
E-----------------------------------------------------------------
B-----------------------------------------------------------------
G---------------------------------5-5-5-5-5-5-5-5-----------------
D-2-2-2-2-2-2-2-2-2-2-2-2-2-2-2-2-5-5-5-5-5-5-5-5-7-7-7-7-7-7-7-7-
A-2-2-2-2-2-2-2-2-2-2-2-2-2-2-2-2-3-3-3-3-3-3-3-3-7-7-7-7-7-7-7-7-
E-0-0-0-0-0-0-0-0-0-0-0-0-0-0-0-0-----------------5-5-5-5-5-5-5-5-

repeat this riff while lead guitar plays

E-------------------------------------------------------19^~~~~----
B--/17h19p17-----12-13-15-13-12-----12--17h19/20/19-17--------------
G-------------------------------------------------------------------
D-------------------------------------------------------------------
A-------------------------------------------------------------------
E-------------------------------------------------------------------



Chorus
(I wanna go with the flow)
   
E---------------------------------------------------------
B---------------------------------------------------------
G-5-5-5-5-5-5-5-5-7-7-7-7-7-7-7-7-------------------------
D-5-5-5-5-5-5-5-5-7-7-7-7-7-7-7-7-2-2-2-2-2-2-2-2---------
A-3-3-3-3-3-3-3-3-5-5-5-5-5-5-5-5-2-2-2-2-2-2-2-2---------
E---------------------------------0-0-0-0-0-0-0-0---------

while lead again plays in the background
E---------------------------------------------------------
B---17-17-17---15-15-15---12-12-12-12-12-12-12------------
G---------------------------------------------------------
D---------------------------------------------------------
A---------------------------------------------------------
E---------------------------------------------------------

there are some more little riffs played by the lead guitar, 
if someone wants to tab them anyway, please go ahead and let me
know!

Thanx
            
Hard to play? Try these video lessons and learn fast. | Correct




comments powered by Disqus
↑ Back to top | Tablatures and chords are parodies/interpretations of the original songs. You may use it for private study, scholarship, research or language learning purposes only