» » »

Queens Of The Stone Age, Go With The Flow.. Bass tabs (ver.1)

Artists:  A B C D E F G H I J K L M N O P Q R S T U V W X Y Z # 

Go With The Flow.. Bass tabs (ver.1)

Queens Of The Stone Age Tabs
 Rating:
4/5 (4 votes)
Go With The Flow.. lessons Tabs too difficult? Try these video lessons and learn fast
1
                THe QUEENS ROCK!


This was a quickie, feel free to correct!

12 = 12 not 1 and 2


Intro
G|--------------------------------|
D|--------------------------------|
A|--------------------------------|
E|-0-0-0-0-0-0-0-0-0-0-0-0-0-0-0-0|

G|----------------------------------------------------------------|
D|----------------------------------------------------------------|
A|-3-3-3-3-3-3-3--------------------------------------------------|
E|---------------0-5-5-5-5-5-5-5-5-0-0-0-0-0-0-0-0-0-0-0-0-0-0-0-0|

G|----------------------------------------------------------------|
D|----------------------------------------------------------------|
A|-3-3-3-3-3-3-3--------------------------------------------------|
E|---------------0-5-5-5-5-5-5-5-/121212121212121212121212121212-0|


First Verse
G|----------------------------------------------------------------|
D|----------------------------------------------------------------|
A|-3-3-3-3-3-3-3--------------------------------------------------|
E|---------------0-5-5-5-5-5-5-5-5-0-0-0-0-0-0-0-0-0-0-0-0-0-0-0-0|

G|----------------------------------------------------------------|
D|----------------------------------------------------------------|
A|-3-3-3-3-3-3-3--------------------------------------------------|
E|---------------0-5-5-5-5-5-5-5-5-0-0-0-0-0-0-0-0-0-0-0-0-0-0-0-0|

G|----------------------------------------------------------------|
D|---------------------------------2-2-2-2-2-2-2-2-2-2-2-2-2-2-2--|
A|-3-3-3-3-3-3-3--------------------------------------------------|
E|---------------0-5-5-5-5-5-5-5-5-------------------------------0|

G|----------------------------------------------------------------|
D|-------------------------------------2-2-2-2-2-2-2-------2-2-2--|
A|-3-3-3-3-3-3-3-------------------2-5-----------------2-5--------|
E|---------------0-5-5-5-5-5-5-5-5-------------------5-----------0|

G|----------------------------------------------------------------|
D|----------------------------------------------------------------|
A|-3-3-3-3-3-3-3--------------------------------------------------|
E|---------------0-5-5-5-5-5-5-5-5-0-0-0-0-0-0-0-0-0-0-0-0-0-0-0-0|

G|----------------------------------------------------------------|
D|----------------------------------------------------------------|
A|-3-3-3-3-3-3-3--------------------------------------------------|
E|---------------0-5-5-5-5-5-5-5-5-0-0-0-0-0-0-0-0-0-0-0-0-0-0-0-0|

Chorus
G|-5-5-------------2-2-----2-2------------------------------------|
D|-----5-5-------------2-2-----2----------------------------------|
A|---------3-3----------------------------------------------------|
E|---------------------------------0-0-0-0-0-0-0-0-0-0-0-0-0-0-0-0|

G|-5-5-------------2-2-----2-2------------------------------------|
D|-----5-5-------------2-2-----2----------------------------------|
A|---------3-3----------------------------------------------------|
E|---------------------------------0-0-0-0-0-0-0-0-0-0-0-0-0-0-0-0|

G|-5-5-------------2-2-----2-2------------------------------------|
D|-----5-5-------------2-2-----2----------------------------------|
A|---------3-3----------------------------------------------------|
E|---------------------------------0-0-0-0-0-0-0-0-0-0-0-0-0-0-0-0|

G|-5-5-------------2-2-----2-2------------------------------------|
D|-----5-5-------------2-2-----2----------------------------------|
A|---------3-3----------------------------------------------------|
E|---------------------------------0-0-0-0-0-0-0-0-0-0-0-0-0-0-0-0|

Second Verse
G|----------------------------------------------------------------|
D|----------------------------------------------------------------|
A|-3-3-3-3-3-3-3--------------------------------------------------|
E|---------------0-5-5-5-5-5-5-5-5-0-0-0-0-0-0-0-0-0-0-0-0-0-0-0-0|

G|----------------------------------------------------------------|
D|-------------------------------------2-2-2-2-2-2-2-------2-2-2--|
A|-3-3-3-3-3-3-3-------------------2-5-----------------2-5--------|
E|---------------0-5-5-5-5-5-5-5-5-------------------5-----------0|

G|-------------------------------------------------2--------------|
D|-------------------------------------2-2-2-5-2-5---5-2---2------|
A|-3-3-3-3-3-3-3-------------------2-5-------------------5--------|
E|---------------0-5-5-5-5-5-5-5-5---------------------------0-3-5|

G|----------------------------------------------------------------|
D|----------------------------------------------------------------|
A|-3-3-3-3-3-3-3--------------------------------------------------|
E|---------------0-5-5-5-5-5-5-5-5-0-0-0-0-0-0-0-0-0-0-0-0-0-0-0-0|

G|----------------------------------------------------------------|
D|---------------------------------2-2-2-2-2-2-2-2-2-2-2-2-2-2-2--|
A|-3-3-3-3-3-3-3--------------------------------------------------|
E|---------------0-5-5-5-5-5-5-5-5-------------------------------0|
  
G|----------------------------------------------------------------|
D|----------------------------------------------------------------|
A|-3-3-3-3-3-3-3--------------------------------------------------|
E|---------------0-5-5-5-5-5-5-5-5-0-0-0-0-0-0-0-0-0-0-0-0-0-0-0-0|
  
G|----------------------------------------------------------------|
D|-------------------------------------------------2-2-2-2-2-2-2--|
A|-3-3-3-3-3-3-3--------------------------------------------------|
E|---------------0-5-5-5-5-5-5-5-5-0-0-0-0-0-0-0-0---------------0|
  
G|----------------------------------------------------------------|
D|----------------------------------------------------------------|
A|-3-3-3-3-3-3-3--------------------------------------------------|
E|---------------0-5-5-5-5-5-5-5-5-0-0-0-0-0-0-0-0-0-0-0-0-0-0-0-0|

Repeat Chorus

Outro
G|----------------------------------------------------------------|
D|----------------------------------------------------------------|
A|-3-3-3-3-3-3-3-3-5-5-5-5-5-5-5-5-7-7-7-7-7-7-7-7-7-7-7-7-7-7-7-7|
E|----------------------------------------------------------------|

  X5

G|---------------------------------------------------------------|
D|---------------------------------------------------------------|
A|-3-3-3-3-3-3-3-3-5-5-5-5-5-5-5-5-7-7-7-7-7-7-7-7---------------|
E|-------------------------------------------------7/1212121212\0|
            
Submit corrections

comments powered by Disqus
↑ Back to top | Queens Of The Stone Age Bass for Go With The Flow... Lyrics for acoustic guitar and electric guitar. 1 Tablatures and chords are parodies/interpretations of the original songs. You may use it for private study, scholarship, research or language learning purposes only