» » »

Queens Of The Stone Age, Gonna Leave You Bass tabs (ver.1)

Artists:  A B C D E F G H I J K L M N O P Q R S T U V W X Y Z # 

Gonna Leave You Bass tabs (ver.1)

Queens Of The Stone Age Tabs
 Rating:
4/5 (4 votes)
Gonna Leave You  lessons Tabs too difficult? Try these video lessons and learn fast
                (1)
beginning
G|------------------------------------|
D|--3---------------------------------|
A|----2-2-2-2-2-2-2-2-2-2-2-2-2-2-2---|
E|------------------------------------|

intro/verse
G|--------------------------------------------------------------------|
D|----------------------------------------------------3---3---3---3---|
A|--2-2-2-2-2-0-2-4-5-5-5-5-5-5-5-5-2-2-2-2-2-2-2-2-1---1---1---1-----|
E|--------------------------------------------------------------------|

G|--------------------------------------------------------------------|
D|--------------------------------------------------------------------|
A|--2-2-2-2-2-0-2-4-5-5-5-5-5-5-5-5-2-2-2-2-2-2-2-2-2-2-2-2-2-2-2-2---|
E|--------------------------------------------------------------------|

pre-chorus
G|--------------------------------------------------------------------|
D|--------------------------------------------------------------------|
A|--------------------4---4---4---4-------------------1---1---1---1---|
E|--3-3-3-3-3-3-3-3-2---2---2---2---3-3-3-3-3-3-3-3-2---2---2---2-----|

G|--------------------------------------------------------------------|
D|--------------------------------------------------------------------|
A|--------------------4---4---4---4---5---5---5---5---7---7---7---7---|
E|--3-3-3-3-3-3-3-3-2---2---2---2---3---3---3---3---5---5---5---5-----|

chorus1
G|--------------------------------------------------------------------|
D|--------------------------------------------------------------------|
A|--2-2-2-2-2-0-2--/5-5-5-5-5-5-5-5-------------------1---1---1---1---|
E|----------------------------------3-3-3-3-3-3-3-3-2---2---2---2-----|

chorus2
G|--------------------------------------------------------------------|
D|--------------------------------------------------------------------|
A|--2-2-2-2-2-0-2--/5-5-5-5-5-5-5-5-----------------------------------|
E|----------------------------------3-3-3-3-3-3-3-3-2-2-2-2-2-2-2-2---|

chorus3
G|--------------------------------------------------------------------|
D|--------------------------------------------------------------------|
A|--2-2-2-2-2-0-2--/5-5-5-5-5-5-5-5-------------------4---4---4---4---|
E|----------------------------------3-3-3-3-3-3-3-3-2---2---2---2-----|

last-chorus
G|-----------------------------------------------------------------------|
D|-----------------------------------------------------------------------|
A|--2-2-2-2-2-0-2--/5-5-5-5-5-5-5-5---------------------------------2----|
E|----------------------------------3-3-3-3-3-3-3-3-5-5-5-5-5-5-5-5------|

bridge
G|--------------------------------------------------------------------|
D|----------------------7---7---7-----------------------3---3---3-----|
A|--2---2-2---0-2-----5---5---5---5-2---2-2---2-2-----1---1---1---1---|
E|--------------------------------------------------------------------|

G|--------------------------------------------------------------------|
D|----------------------7---7---7-------------------------------------|
A|--2---2-2---0-2-----5---5---5---5-2---2-2---2-2-----2-2---2-2-2-2---|
E|--------------------------------------------------------------------|


beginning
intro
verse
pre-chorus
chorus1	X2
verse
pre-chorus
chorus1 X2
chorus2 X2
bridge
pre-chorus
chorus3
chorus1
chorus2
last-chorus
            
Submit corrections

comments powered by Disqus
↑ Back to top | Queens Of The Stone Age Bass for Gonna Leave You. Lyrics for acoustic guitar and electric guitar. Tablatures and chords are parodies/interpretations of the original songs. You may use it for private study, scholarship, research or language learning purposes only