» » »

Queens Of The Stone Age, Gonna Leave You Tabs (ver.2)

Artists:  A B C D E F G H I J K L M N O P Q R S T U V W X Y Z # 

Gonna Leave You Tabs (ver.2)

Queens Of The Stone Age Tabs
 Rating:
4/5 (4 votes)
Gonna Leave You lessons Tabs too difficult? Try these video lessons and learn fast
                queens of the stone age
gonna leave you
Songs For The Deaf
i realized there was no good tabs for gonna leave you by QOTSA so i put this together
Tuning(low-to-high): (down 2 full steps) C F Bb Eb G c
Key: /  = slide
      h  = hammer-on
      p  = pull-off
      b  = bend
      r  = release
      *  = natural harmonic
     ( ) = optional note
      x  = mute note
      ~  = vibrato
      ^  = let ring
      #  = stompbox on/off



Intro:

|----------------------14-15-------------------------------------------|
|----------------------------14~---------------------------------------|
|----bass----------------------------11/12-11/12-----------------------|
|------------------------------------------------11~-----4h5-4h5-------|
|----------------------------------------------------------------4b(5)-|
|----------------------------------------------------------------------|

|----------------------14-15-----------------------------7-6~--7-4~----|
|----------------------------14~------------------------x--------------|
|------------------------------------11/12-11/12-------x---------------|
|------------------------------------------------11~-------------------|
|-(5)------(5)r4~------------------------------------------------------|
|----------------------------------------------------------------------|

|-7-6-7-4~------------(4)----------|
|-----------------------------------|
|-----------------------------------|
|-----------------------------------|
|-----------------------------------|
|-----------------------------------|


Verse:
                Wait by the phone
|----------------------------------------------------------------------|
|----------------------------------------------------------------------|
|----------------------------------------------------------------------|
|---8---8---8---8---8---8---8---8///11--11--11--11--11--11--11--11\\---|
|---6---6---6---6---6---6---6---6////9---9---9---9---9---9---9---9\\---|
|----------------------------------------------------------------------|

                    late all alone
|----------------------------------------------------------------------|
|----------------------------------------------------------------------|
|----------------------------------------------------------------------|
|---8---8---8---8---8---8---8---8\\7---7---7---7---7---7---7---7////---|
|---6---6---6---6---6---6---6---6\\5---5---5---5---5---5---5---5////---|
|----------------------------------------------------------------------|

                    he can't help you,                        but I 
|----------------------------------------------------------------------|
|----------------------------------------------------------------------|
|----------------------------------------------------------------------|
|---8---8---8---8---8---8---8---8///11--11--11--11--11--11--11--11\\---|
|---6---6---6---6---6---6---6---6////9---9---9---9---9---9---9---9\\---|
|----------------------------------------------------------------------|
   
  know                      I    could
|----------------------------------------------------------------------|
|----------------------------------------------------------------------|
|----------------------------------------------------------------------|
|---8---8---8---8---8---8---8---8---8---8---8---8---8---8---8---8\\----|
|---6---6---6---6---6---6---6---6---6---6---6---6---6---6---6---6\\----|
|----------------------------------------------------------------------|


Pre-Chorus:
                   Three years too long
                  ya' know this is wrong
                  everything scars the skin               push it
                     
||--------------------------------------------------------------------||
||--------------------------------------------------------------------||
||--------------------------------------------------------------------||
||-4---4---4---4---4---4---4---4\\3---3---3---3---3---3---3---3////---||
||-2---2---2---2---2---2---2---2\\1---1---1---1---1---1---1---1////---||
||--------------------------------------------------------------------||

 in                     break it off
           
 
|----------------------------------------------------------------------|
|----------------------------------------------------------------------|
|----------------------------------------------------------------------|
|---4---4---4---4---4---4---4---4////6---6---6---6---6---6---6---6////-|
|---2---2---2---2---2---2---2---2////4---4---4---4---4---4---4---4////-|
|----------------------------------------------------------------------|


Chorus:
            I'm gonna leave             I'm gonna leave you
            I'm gonna leave             I'm gonna leave you
||--------------------------------------------------------------------||
||--------------------------------------------------------------------||
||----------------------------------------------------------11--------||
||--8---8---8---8---8---8---8---8///11--11--11--11--11------11--11\\--||
||--6---6---6---6---6---6---6---6////9---9---9---9-------9-------9\\--||
||--------------------------------------------------------------------||

|---------------------------------------------------------------------||
|---------------------------------------------------------------------||
|---------------------------------------------------------------------||
|--4---4---4---4---4---4---4---4\\3---3---3---3---3---3---3---3////---||
|--2---2---2---2---2---2---2---2\\1---1---1---1---1---1---1---1////---||
|---------------------------------------------------------------------||

|----------------------------------------------------------------------|
|----------------------------------------------------------------------|
|----------------------------------------------------------------------|
|---4---4---4---4---4---4---4---4////6---6---6---6---6---6---6---6////-|
|---2---2---2---2---2---2---2---2////4---4---4---4---4---4---4---4////-|
|----------------------------------------------------------------------|
               
VERSE

  i gave it a start
|----------------------------------------------------------------------|
|----------------------------------------------------------------------|
|----------------------------------------------------------------------|
|---8---8---8---8---8---8---8---8///11--11--11--11--11--11--11--11\\---|
|---6---6---6---6---6---6---6---6////9---9---9---9---9---9---9---9\\---|
|----------------------------------------------------------------------|


                         I stomped on your heart
|----------------------------------------------------------------------|
|----------------------------------------------------------------------|
|----------------------------------------------------------------------|
|---8---8---8---8---8---8---8---8\\7---7---7---7---7---7---7---7////---|
|---6---6---6---6---6---6---6---6\\5---5---5---5---5---5---5---5////---|
|----------------------------------------------------------------------|

                 
                    this is the end                         no more 
|----------------------------------------------------------------------|
|----------------------------------------------------------------------|
|----------------------------------------------------------------------|
|---8---8---8---8---8---8---8---8///11--11--11--11--11--11--11--11\\---|
|---6---6---6---6---6---6---6---6////9---9---9---9---9---9---9---9\\---|
|----------------------------------------------------------------------|
   
 
  pictures                  we ain't friends
|----------------------------------------------------------------------|
|----------------------------------------------------------------------|
|----------------------------------------------------------------------|
|---8---8---8---8---8---8---8---8---8---8---8---8---8---8---8---8\\----|
|---6---6---6---6---6---6---6---6---6---6---6---6---6---6---6---6\\----|
|----------------------------------------------------------------------|


Pre-Chorus:
                           
               	  It's raining in my room
                  there's blood in my spoon
                  you're outta my high-chair     
||--------------------------------------------------------------------||
||--------------------------------------------------------------------||
||--------------------------------------------------------------------||
||-4---4---4---4---4---4---4---4\\3---3---3---3---3---3---3---3////---||
||-2---2---2---2---2---2---2---2\\1---1---1---1---1---1---1---1////---||
||--------------------------------------------------------------------||

 
                   I'm outta your womb

|----------------------------------------------------------------------|
|----------------------------------------------------------------------|
|----------------------------------------------------------------------|
|---4---4---4---4---4---4---4---4////6---6---6---6---6---6---6---6////-|
|---2---2---2---2---2---2---2---2////4---4---4---4---4---4---4---4////-|
|----------------------------------------------------------------------|

CHORUS
            
            I'm gonna leave             I'm gonna leave you
	    I'm gonna leave             I'm gonna leave you
	    I'm gonna leave             I'm gonna leave you
	    I'm gonna leave             I'm gonna Leave you
||---------------------------------------------------------------------|
||---------------------------------------------------------------------|
||----------------------------------------------------------11---------|
||--8---8---8---8---8---8---8---8///11--11--11--11--11------11--11\\---|
||--6---6---6---6---6---6---6---6////9---9---9---9-------9-------9\\---|
||---------------------------------------------------------------------|

|---------------------------------------------------------------------||
|---------------------------------------------------------------------||
|---------------------------------------------------------------------||
|--4---4---4---4---4---4---4---4\\3---3---3---3---3---3---3---3////---||
|--2---2---2---2---2---2---2---2\\1---1---1---1---1---1---1---1////---||
|---------------------------------------------------------------------||

|----------------------------------------------------------------------|
|----------------------------------------------------------------------|
|----------------------------------------------------------------------|
|---4---4---4---4---4---4---4---4////6---6---6---6---6---6---6---6////-|
|---2---2---2---2---2---2---2---2////4---4---4---4---4---4---4---4////-|
|----------------------------------------------------------------------|



Solo Coming Soon



Bridge:

||--------------------------------------------------------------------||
||--------------------------------------------------------------------||
||--------------------------------------------------------------------||
||--8-8---8-8---8--11-11--11-11-------8-8---8-8---8--7-7--7-7---------||
||--6-6-5-6-6-5-6---9--9---9--9-15----6-6-5-6-6-5-6--5-5--5-5/12------||
||--------------------------------------------------------------------||

Pre-Chorus:
                   Three years too long
                  ya' know this is wrong
                  everything scars the skin               push it
                     
||--------------------------------------------------------------------||
||--------------------------------------------------------------------||
||--------------------------------------------------------------------||
||-4---4---4---4---4---4---4---4\\3---3---3---3---3---3---3---3////---||
||-2---2---2---2---2---2---2---2\\1---1---1---1---1---1---1---1////---||
||--------------------------------------------------------------------||

 in      push it in               break it off
           
 
|----------------------------------------------------------------------|
|----------------------------------------------------------------------|
|----------------------------------------------------------------------|
|---4---4---4---4---4---4---4---4////6---6---6---6---6---6---6---6////-|
|---2---2---2---2---2---2---2---2////4---4---4---4---4---4---4---4////-|
|----------------------------------------------------------------------|

	    I'm gonna leave             I'm gonna leave you
	    I'm gonna leave             I'm gonna leave you
	    I'm gonna leave             I'm gonna leave you
	    I'm gonna leave                I don't need you
||---------------------------------------------------------------------|
||---------------------------------------------------------------------|
||----------------------------------------------------------11---------|
||--8---8---8---8---8---8---8---8///11--11--11--11--11------11--11\\---|
||--6---6---6---6---6---6---6---6////9---9---9---9-------9-------9\\---|
||---------------------------------------------------------------------|

|---------------------------------------------------------------------||
|---------------------------------------------------------------------||
|---------------------------------------------------------------------||
|--4---4---4---4---4---4---4---4\\3---3---3---3---3---3---3---3////---||
|--2---2---2---2---2---2---2---2\\1---1---1---1---1---1---1---1////---||
|---------------------------------------------------------------------||

|----------------------------------------------------------------------|
|----------------------------------------------------------------------|
|----------------------------------------------------------------------|
|---4---4---4---4---4---4---4---4////6---6---6---6---6---6---6---6////-|
|---2---2---2---2---2---2---2---2////4---4---4---4---4---4---4---4////-|
|----------------------------------------------------------------------|


|-----------------------------------|
|--7~-------------------------------|
|--8~-------------------------------|
|--8~-------------------------------|
|--6~-------------------------------|
|-----------------------------------|
            
Submit corrections

comments powered by Disqus
↑ Back to top | Queens Of The Stone Age Tabs for Gonna Leave You. Lyrics for acoustic guitar and electric guitar. Tablatures and chords are parodies/interpretations of the original songs. You may use it for private study, scholarship, research or language learning purposes only