» » »

Everybodys Gonna Be Happy Tabs (ver.2)

Artists:  A B C D E F G H I J K L M N O P Q R S T U V W X Y Z # 

Everybodys Gonna Be Happy Tabs (ver.2)

Queens Of The Stone Age
Rating:
0/5 (0 votes)

Tabs too difficult? Try these video lessons and learn fast.
                standard tuning. you get the point.


e|------7---7-----8---------------------------------|
B|------10--10----11--------------------------------|
G|------8---8-----9---------------------------------|
D|------7---7-----8---------------------------------|
A|------9---9-----10--------------------------------|
E|------7---7-----8---------------------------------|

e|---------5--------0--------4----------------------|
B|---------5--------0--------4----------------------|
G|---------6--------1--------5----------------------|
D|---------7--------2--------6----------------------|
A|---------7--------2--------6----------------------|
E|---------5--------0--------4--------------------- |
            
Tabs too difficult? Try these video lessons and learn fast.




comments powered by Disqus
↑ Back to top | Tablatures and chords are parodies/interpretations of the original songs. You may use it for private study, scholarship, research or language learning purposes only