» » »

Queens Of The Stone Age, Everybody Knows That Youre Insane Tabs (ver.1)

Artists:  A B C D E F G H I J K L M N O P Q R S T U V W X Y Z # 

Everybody Knows That Youre Insane Tabs (ver.1)

Queens Of The Stone Age Tabs
Rating:
0/5 (0 votes)
Everybody Knows That Youre Insane lessons Tabs too difficult? Try these video lessons and learn fast
                Nobody does pop hooks to dreary music like Queens of the Stone Age. Another great song
off of Lullabies to Paralyze. In C tuning 

Intro/Verse Rhythm (Clean)
       A sh     A mj   F sh  D sh   
   |--------------------------------|
   |------7-------6------3----------|
   |--------7-------6-----3----4----|
   |----7----7---6---6--3--3----5---|
   |---5--------4------1------5--5--|
   |-------------------------3------|

Slide Lead Intro
|-----------------------------------|
|-----------------------------------|
|-7/10\7~---6\7/6-----------/12~----|
|--------------------2\3~-3\--------|
|-----------------------------------|
|-----------------------------------|

     Intro Rhythm Cont.
        A sh   C mj   C sh      C sh  
     |-------------------------------------|
     |----7------9-------10--------10------|
     |-----7------9--------10--------10----|
     |---7--7---9--9---10----10--10----10--|
     |--5------7------8---------8----------|
     |-------------------------------------|

Slide Lead Cont.
|-----------------------------|
|-13/15\10---10/12~---12/14~--|
|-----------------------------|
|-----------------------------|
|-----------------------------|
|-----------------------------|

    Intro Rhythm Cont.
        A sh     A mj   F sh  D sh   
    |--------------------------------|
    |------7-------6------3----------|
    |--------7-------6-----3----4----|
    |----7----7---6---6--3--3----5---|
    |---5--------4------1------5--5--|
    |-------------------------3------|

Slide Lead Cont.
|-10/13\10~--10/15~--15/17~--18~--|
|---------------------------------|
|---------------------------------|
|---------------------------------|
|---------------------------------|
|---------------------------------|

Intro Rhythm Cont.
        A sh   C mj   C sh      C sh  
     |-------------------------------------|
     |----7------9-------10--------10------|
     |-----7------9--------10--------10----|
     |---7--7---9--9---10----10--10----10--|
     |--5------7------8---------8----------|
     |-------------------------------------|

Slide Lead Cont.
|-13/16\13--/16---/22-/22\21\14~--14/16\14\9~~~--|
|------------------------------------------------|
|------------------------------------------------|
|------------------------------------------------|
|------------------------------------------------|
|------------------------------------------------|

Verse (same picking pattern as above)
A sh       A mj          F sh    D sh
  You Otta Know  Why You Feel So Hollow 

                                   Slide Lead 
                                   |-------------|
                                   |-10/15~\10~--|
                                   |-------------|
                                   |-------------|
                                   |-------------|
                                   |-------------|

A sh        A mj         F sh    D sh  (carry out the "are")
  Cause You Are------------------------      
                                          Slide
                                          |-10/13~\10~--|
                                          |-------------|
                                          |-------------|
                                          |-------------|
                                          |-------------|
                                          |-------------|

A sh             A mj      F sh   D sh       
  You're Missing Out  Well If You Say So
               Slide
               |-/15-------------------13/17~\13~~---|
               |-------------------------------------|
               |-------------------------------------| 
               |-------------------------------------|
               |-------------------------------------|
               |-------------------------------------|
       A sh                  A mj          D sh 
         When You're Missing Out-------------
Slide
|-13/16\13~~--------------------------/17~/19~/20/22~~~--|
|--------------------------------------------------------|
|--------------------------------------------------------|
|--------------------------------------------------------|
|--------------------------------------------------------|
|--------------------------------------------------------|

Chorus (Heavy Distorion)
  Everybody---------------- Knows That  You're  In-
|---------------------------------------------------|
|---------------------------------------------------|
|-7-7-7-7-7-7-7-7-7-7-7-7-7-6-6-6-6-6-6-3-3-3-3-3-3-|
|-7-7-7-7-7-7-7-7-7-7-7-7-7-6-6-6-6-6-6-3-3-3-3-3-3-|
|-5-5-5-5-5-5-5-5-5-5-5-5-5-4-4-4-4-4-4-1-1-1-1-1-1-|
|---------------------------------------------------|
-Sane
|------------------------------------------------------|
|------------------------------------------------------|
|-----------7-------------7-------------7--------------|
|-5-5-5-5-5-7---5-5-5-5-5-7---5-5-5-5-5-7---5-5-5-5-5--|
|-5-5-5-5-5-5---5-5-5-5-5-5---5-5-5-5-5-5---5-5-5-5-5--|
|-3-3-3-3-3-0-0-3-3-3-3-3-0-0-3-3-3-3-3-0-0-3-3-3-3-3--| 2x

2nd Verse (the A sharp and A major have slight distorion)
                    
                  You  Otta  Know                  
|------------------------------------------------------|
|------------------------------------------------------|
|-7-7--7-7-7--7-7-7--7-7-7--7-6-6--6-6-6--6-6-6--6-6-6-|
|-7-7--7-7-7--7-7-7--7-7-7--7-6-6--6-6-6--6-6-6--6-6-6-|
|-5-5--5-5-5--5-5-5--5-5-5--5-4-4--4-4-4--4-4-4--4-4-4-|
|------------------------------------------------------|

(the F sharp and the D sharp are heavily distorted)

Just   How Long  You Can    Hide From--------
  |-------------------------------------------------|
  |-------------------------------------------------|
  |-----------------------------------------------5-|
  |-8-8-8-8-8-8-8-8-8-8-8-8-5-5-5-5-5-5-5-5-5-5-5-5-|
  |-8-8-8-8-8-8-8-8-8-8-8-8-5-5-5-5-5-5-5-5-5-5-5-7-|
  |-6-6-6-6-6-6-6-6-6-6-6-6-3-3-3-3-3-3-3-3-3-3-3---| 

          What You Are---------------------------------
|------------------------------------------------------|
|------------------------------------------------------|
|-7-7--7-7-7--7-7-7--7-7-7--7-9-9--9-9-9--9-9-9--9-9-9-|
|-7-7--7-7-7--7-7-7--7-7-7--7-9-9--9-9-9--9-9-9--9-9-9-|
|-5-5--5-5-5--5-5-5--5-5-5--5-7-7--7-7-7--7-7-7--7-7-7-|
|------------------------------------------------------|  

              Not Very Long
|-------------------------------------------------|
|-------------------------------------------------|
|-------------------------------------------------|
|-8-8-8-8-8-8-8-8-8-8-8-8-8-8-8-8-8-8-8-8-8-8-8-8-|
|-8-8-8-8-8-8-8-8-8-8-8-8-8-8-8-8-8-8-8-8-8-8-8-8-|
|-6-6-6-6-6-6-6-6-6-6-6-6-6-6-6-6-6-6-6-6-6-6-6-6-|

                  I Have Been Lost
|------------------------------------------------------|
|------------------------------------------------------|
|-7-7--7-7-7--7-7-7--7-7-7--7-6-6--6-6-6--6-6-6--6-6-6-|
|-7-7--7-7-7--7-7-7--7-7-7--7-6-6--6-6-6--6-6-6--6-6-6-|
|-5-5--5-5-5--5-5-5--5-5-5--5-4-4--4-4-4--4-4-4--4-4-4-|
|------------------------------------------------------|

Down Every--- Road I've   Followed
|-------------------------------------------------|
|-------------------------------------------------|
|-------------------------------------------------|
|-8-8-8-8-8-8-8-8-8-8-8-8-5-5-5-5-5-5-5-5-5-5-5-5-|
|-8-8-8-8-8-8-8-8-8-8-8-8-5-5-5-5-5-5-5-5-5-5-5-5-|
|-6-6-6-6-6-6-6-6-6-6-6-6-3-3-3-3-3-3-3-3-3-3-3-3-|

                   Out in the Dark----------------
|------------------------------------------------------|
|------------------------------------------------------|
|-7-7--7-7-7--7-7-7--7-7-7--7-9-9--9-9-9--9-9-9--9-9-9-|
|-7-7--7-7-7--7-7-7--7-7-7--7-9-9--9-9-9--9-9-9--9-9-9-|
|-5-5--5-5-5--5-5-5--5-5-5--5-7-7--7-7-7--7-7-7--7-7-7-|
|------------------------------------------------------| 
      On My Way Home
|--------------------------------------------------------------------------|
|--------------------------------------------------------------------------|
|-----------------------------------7------------7------------7------------|
|-8-8-8-8-8-8-8-8-8-8-8-8-5-5-5-5-5-7--5-5-5-5-5-7--5-5-5-5-5-7--5-5-5-5-5-|
|-8-8-8-8-8-8-8-8-8-8-8-8-5-5-5-5-5-5--5-5-5-5-5-5--5-5-5-5-5-5--5-5-5-5-5-|
|-6-6-6-6-6-6-6-6-6-6-6-6-3-3-3-3-3--0-3-3-3-3-3--0-3-3-3-3-3--0-3-3-3-3-3-|

Chorus (Heavy Distorion)
  Everybody---------------- Knows That  You're  In-
|---------------------------------------------------|
|---------------------------------------------------|
|-7-7-7-7-7-7-7-7-7-7-7-7-7-6-6-6-6-6-6-3-3-3-3-3-3-|
|-7-7-7-7-7-7-7-7-7-7-7-7-7-6-6-6-6-6-6-3-3-3-3-3-3-|
|-5-5-5-5-5-5-5-5-5-5-5-5-5-4-4-4-4-4-4-1-1-1-1-1-1-|
|---------------------------------------------------|
-Sane
|------------------------------------------------------|
|------------------------------------------------------|
|-----------7-------------7-------------7--------------|
|-5-5-5-5-5-7---5-5-5-5-5-7---5-5-5-5-5-7---5-5-5-5-5--|
|-5-5-5-5-5-5---5-5-5-5-5-5---5-5-5-5-5-5---5-5-5-5-5--|
|-3-3-3-3-3-0-0-3-3-3-3-3-0-0-3-3-3-3-3-0-0-3-3-3-3-3--| 3x

  Everybody---------------- Knows That  You're  In-
|---------------------------------------------------|
|---------------------------------------------------|
|-7-7-7-7-7-7-7-7-7-7-7-7-7-9-9-9-9-9-9-3-3-3-3-3-3-|
|-7-7-7-7-7-7-7-7-7-7-7-7-7-9-9-9-9-9-9-3-3-3-3-3-3-|
|-5-5-5-5-5-5-5-5-5-5-5-5-5-7-7-7-7-7-7-1-1-1-1-1-1-|
|---------------------------------------------------|
-Sane
|------------------------------------------------------|
|------------------------------------------------------|
|-----------7-------------7-------------7--------------|
|-5-5-5-5-5-7---5-5-5-5-5-7---5-5-5-5-5-7---5-5-5-5-5--|
|-5-5-5-5-5-5---5-5-5-5-5-5---5-5-5-5-5-5---5-5-5-5-5--|
|-3-3-3-3-3-0-0-3-3-3-3-3-0-0-3-3-3-3-3-0-0-3-3-3-3-3--| 1x

Chorus Lead

  Everybody------------------- Knows   That     You're        In-   
|-----------------------------------------------------------------|
|-----------------------------------------------------------------|
|-7777-9999-10101010-12121212-13131313-12121212-10101010-12121212-|
|-----------------------------------------------------------------|
|-----------------------------------------------------------------|
|-----------------------------------------------------------------|
  Sane
|-------------------------------------------|
|-------------------------------------------|
|-77777777h9p77777777h9p77777777h9p77777777-|
|-------------------------------------------|
|-------------------------------------------|
|-------------------------------------------| 3x

  Everybody------------------ Knows That    You're        In-   
|-------------------------------------------------------------|
|-------------------------------------------------------------|
|-7777-9999-10101010-12121212-9999-10101010-12121212-13131313-|
|-------------------------------------------------------------|
|-------------------------------------------------------------|
|-------------------------------------------------------------|
  Sane
|-------------------------------------------|
|-------------------------------------------|
|-77777777h9p77777777h9p77777777h9p77777777-|
|-------------------------------------------|
|-------------------------------------------|
|-------------------------------------------| 1x

Bridge

Rhythm
|-----------------------------------------------|
|-----------------------------------------------|
|-3-3---3-3---3-3---3-3---7-7---7-7---5-5---5-5-|
|-3-3---3-3---3-3---3-3---7-7---7-7---5-5---5-5-|
|-1-1---1-1---1-1---1-1---5-5---5-5---3-3---3-3-|
|-----0-----0-----0-----0-----0-----0-----0-----|4x

Solo (oh boy, this could be pretty rough)
|-----------------------------------------8h10p8------12~-|
|-----------------------------------------------10p8------|
|-7^-5h7-7--5h7-7p5-7/9-9~--10--12^12^-10-----------9-----|
|--------------7------------------------------------------|
|---------------------------------------------------------|
|---------------------------------------------------------| 

|-13^13^-10---10-17--------------------------------------|
|------------------18-15-17------15----------------------|
|--------------------------17-14----14-10-(14-10-12)-7~--|
|--------------------------------------------------------|
|--------------------------------------------------------|
|--------------------------------------------------------|

  And I Feel Noth-ing - Am I Better Yet
|-------------------------------------------------| 
|-------------------------------------------------| 
|-3-3-3-3-3-3-3-3-3-3-3-3-7-7-7-7-7-7-5-5-5-5-5-5-|                         
|-3-3-3-3-3-3-3-3-3-3-3-3-7-7-7-7-7-7-5-5-5-5-5-5-|
|-1-1-1-1-1-1-1-1-1-1-1-1-5-5-5-5-5-5-3-3-3-3-3-3-|
|-------------------------------------------------| 3x

  And I Feel Noth--ing Am I Better Yet 
|--------------------------------------------------|
|--------------------------------------------------|
|-3-3-3-3-3-3-3-3-3-3-3-3-----------7--------------|
|-3-3-3-3-3-3-3-3-3-3-3-3-5-5-5-5-5-7--5-5-5-5-5---|
|-1-1-1-1-1-1-1-1-1-1-1-1-5-5-5-5-5-5--5-5-5-5-5---|
|-------------------------3-3-3-3-3--0-3-3-3-3-3---| 1x

Chorus (Heavy Distorion)
  Everybody---------------- Knows That  You're  In-
|---------------------------------------------------|
|---------------------------------------------------|
|-7-7-7-7-7-7-7-7-7-7-7-7-7-6-6-6-6-6-6-3-3-3-3-3-3-|
|-7-7-7-7-7-7-7-7-7-7-7-7-7-6-6-6-6-6-6-3-3-3-3-3-3-|
|-5-5-5-5-5-5-5-5-5-5-5-5-5-4-4-4-4-4-4-1-1-1-1-1-1-|
|---------------------------------------------------|
-Sane
|------------------------------------------------------|
|------------------------------------------------------|
|-----------7-------------7-------------7--------------|
|-5-5-5-5-5-7---5-5-5-5-5-7---5-5-5-5-5-7---5-5-5-5-5--|
|-5-5-5-5-5-5---5-5-5-5-5-5---5-5-5-5-5-5---5-5-5-5-5--|
|-3-3-3-3-3-0-0-3-3-3-3-3-0-0-3-3-3-3-3-0-0-3-3-3-3-3--| 4x

Chorus Lead

  Everybody------------------- Knows   That     You're        In-   
|-----------------------------------------------------------------|
|-----------------------------------------------------------------|
|-7777-9999-10101010-12121212-13131313-12121212-10101010-12121212-|
|-----------------------------------------------------------------|
|-----------------------------------------------------------------|
|-----------------------------------------------------------------|
  Sane
|-------------------------------------------|
|-------------------------------------------|
|-77777777h9p77777777h9p77777777h9p77777777-|
|-------------------------------------------|
|-------------------------------------------|
|-------------------------------------------| 3x

  Everybody------------------ Knows That    You're        In-   
|-------------------------------------------------------------|
|-------------------------------------------------------------|
|-7777-9999-10101010-12121212-9999-10101010-12121212-13131313-|
|-------------------------------------------------------------|
|-------------------------------------------------------------|
|-------------------------------------------------------------|
  Sane
|-------------------------------------------|
|-------------------------------------------|
|-77777777h9p77777777h9p77777777h9p77777777-|
|-------------------------------------------|
|-------------------------------------------|
|-------------------------------------------| 1x

great song, it's pretty accurate as far as i can tell. enjoy piggies
            
Submit corrections

comments powered by Disqus
↑ Back to top | Queens Of The Stone Age Tabs for Everybody Knows That Youre Insane. Lyrics for acoustic guitar and electric guitar. Tablatures and chords are parodies/interpretations of the original songs. You may use it for private study, scholarship, research or language learning purposes only