» » »

Queens Of The Stone Age, Battery Acid Tabs (ver.3)

Artists:  A B C D E F G H I J K L M N O P Q R S T U V W X Y Z # 

Battery Acid Tabs (ver.3)

Queens Of The Stone Age Tabs
Rating:
0/5 (0 votes)
Hard to play? Try these video lessons and learn fast.
                Battery Acid - Queens of the Stone Age
Tuning - Drop D

This is much easier to play in Drop D.

Riff 1:
E|-----------------|------------------------------|
B|-----------------|------------------------------|
G|-----------------|------------------------------|
D|-----------------|--------------9--8--10--7--7--|
A|--4--5--5--6--9--|--4--5--5--6--9--8--10--7--7--|
D|--4--5--5--6--9--|--4--5--5--6--9--8--10--7--7--|


Riff 2:
E|---------------------|
B|---------------------|
G|---------------------|
D|--7--9--8--10--7--7--|
A|--7--9--8--10--7--7--|
D|--7--9--8--10--7--7--|


Riff 3:
E|--------------------------------|--------------------------|
B|--------------------------------|--------------------------|
G|--------------------------------|--------------------------|
D|--7--4--3--5--6--2--2--2--2--2--|--2--4--3--5--6--2--2--2--|
A|--7--4--3--5--6--2--2--2--2--2--|--2--4--3--5--6--2--2--2--|
D|--7--4--3--5--6--2--2--2--2--2--|--2--4--3--5--6--2--2--2--|


Riff 3 continued:
E|-------------------------------|
B|-------------------------------|
G|-------------------------------|
D|--2--4--3--5--7--9--8--10--7--7|
A|--2--4--3--5--7--9--8--10--7--7|
D|--2--4--3--5--7--9--8--10--7--7|

Riff 4 guitar 1:
E|---------------------|-------------------------------------|
B|---------------------|-------------------------------------|
G|---------------------|-------------------------------------|
D|--7--5--5------3--3--|--9--7--10--8--8--7--9--8--10--8--8--|
A|--7--5--5------3--3--|--7--5--8---6--6--5--7--6--8---6--6--|
D|--7--5--5------3--3--|-------------------------------------|


Riff 4 guitar 2:
E|----------------------------|-------------------------------------|
B|-----3--------6~---------5~-|-------------------------------------|
G|--------4----------4--------|-------------------------------------|
D|--5--------5----------5-----|--9--7--10--8--8--7--9--8--10--8--8--|
A|----------------------------|--7--5--8---6--6--5--7--6--8---6--6--|
D|----------------------------|-------------------------------------|

Riff 5:
E|----------------------------------|
B|----------------------------------|
G|----------------------------------|
D|--12--12--12--12--12--12--12--12--|
A|--12--12--12--12--12--12--12--12--|
D|--12--12--12--12--12--12--12--12--|

Riff 5 continued:
E|----------------------------------|
B|----------------------------------|
G|----------------------------------|
D|---9--9---9--9---9---9---9---9----|
A|---9--9---9--9---9---9---9---9----|
D|---9--9---9--9---9---9---9---9----|

I'll work out the solo and post it as a second tab.
            

comments powered by Disqus
↑ Back to top | Queens Of The Stone Age Tabs for Battery Acid. Lyrics for acoustic guitar and electric guitar. Tablatures and chords are parodies/interpretations of the original songs. You may use it for private study, scholarship, research or language learning purposes only