>
 >
Battery Acid

Battery Acid Guitar Tabs

Queens Of The Stone Age - Battery Acid chords, tabs, tablatures, lyrics

Guitar lessons | Add/correct | Request | Top 50 tabs Artists:  A B C D E F G H I J K L M N O P Q R S T U V W X Y Z 0-9

Battery Acid Guitar Tabs – Queens Of The Stone Age

CD, Sheet music, Poster

Do you like Battery Acid? Share with your friends now
TabsTabs v2Tabs v3
-------------------------------------------------------------------------------
-------------------------------------------------------------------------------

Gtr I (C F A# D# G C) - 'Untitled'


INTRO
 4/4
  Gtr I
  E Q  E  Q   Q
|------------------|
|------------------|
|------------------|
|------------------|
|-8-9--9-10--13----|
|-6-7--7--8--11----|


VERSE

    Q=140
     E    E    E     E E   E E    E   Repeat as necessary
----||-------------------------------------||----|
----||o-----------------------------------o||----|
----||------------------10----10-----10----||----|
----||--13---12---14----11----11-----11----||----|
-11-||o-13---12---14----11----11-----11---o||----|
--9-||--11---10---12-----9-----9------9----||----|


CHORUS

  E E E  E E E E E   E E E E E E E E
|------------------|------------------|
|------------------|------------------|
|------------------|------------------|
|------------------|------------------|
|-8-7-9-10---6---6-|---6---6---6---6--|
|-6-5-7--8---4---4-|---4---4---4---4--|


  E E E  E E E E E   E E E E E E E  E    E  E  E  E E  E E  E
|------------------|------------------|-------------------------|
|------------------|------------------|-------------------------|
|------------------|------------------|----------10---10--------|
|------------------|------------------|-13-12-14-11---11---11---|
|-8-7-9-10---6---6-|---6---6-8-7-9-11-|-13-12-14-11---11---11---|
|-6-5-7--8---4---4-|---4---4-6-5-7--9-|-11-10-12--9----9----9---|



BRIDGE -repeat 4 times, then repeat last two bars 4 times

  E E E E  H      E Q  H       E   E E E E E E E E   E E E E E E E E
|---------------|----------------|-----------------|-----------------|
|---7-----10----|------9b10------|-----------------|-----------------|
|-----8---------|-8--------------|-8-6-9-7---8---6-|-8-6-9-7---8---6-|
|-9-----9-------|---9------------|-6-4-7-5---6---4-|-6-4-7-5---6---4-|
|---------------|----------------|-----------------|-----------------|
|---------------|----------------|-----------------|-----------------|



RIFF NEAR THE END

     E  E E  E E  E E  E   E  E E  E E  E E  E
||-----------------------|---------------------|
||o-11-11---11---11---11-|---11---11---11---11-|
||--11-11---11---11---11-|---11---11---11---11-|
||--11-11---11---11---11-|---11---11---11---11-|
||o--9--9----9----9----9-|----9----9----9----9-|
||-----------------------|---------------------|


  E E E E E E E E   E E E E E E   E E
|-----------------|---------------------||
|-9-9---9---9---9-|---9---9---9-----9--o||
|-9-9---9---9---9-|---9---9---9-----9---||
|-9-9---9---9---9-|---9---9---9-----9---||
|-7-7---7---7---7-|---7---7---7-----7--o||
|-----------------|---------------------||


SOLO - bend some of the notes out of tune


   S S  E E  E Q     Q    S  S E  E E  Q        Q
|-----------------------|--------------------------|
|-----------------------|--------------------------|
|--------------8b11r=8--|------9----9-10b11.5r=10--|
|-11p9----9-11----------|-9h11---11----------------|
|------11---------------|--------------------------|
|-----------------------|--------------------------|


  S  S S  S E  E  Q      Q      S  S E  E E  Q      Q
|-----------------------------|---------------------------|
|-----------------------------|---------------------------|
|-----------------------------|------9----9-11b13r=11b13--|
|------9----9----11b13r=11b13-|-9h11---11-----------------|
|-9h11---11---11--------------|---------------------------|
|-----------------------------|---------------------------|


  S  S S  S E  E Q     Q       Q.     E   Q.    E
|----------------------------|------------------9-|
|----------------------------|--------------------|
|------9----9----9b11r=9b11--|-9b11r=====11b13----|
|-9h11---11---11-------------|-------11-----------|
|----------------------------|--------------------|
|----------------------------|--------------------|


   Q       E   Q    E  Q         E E  E  E  E     E  E  E
|-------------------9---------|----------------------------|
|---------12------------------|----------------------------|
|-11pb13r=====11b13---11pb13r=|=10-9-10-11-11b13-11-10-11--|
|-----------------------------|----------------------------|
|-----------------------------|----------------------------|
|-----------------------------|----------------------------|


    E E  E Q      E  E E   +E   E E Q      E  S S  E
|------------------------|---------------------------|
|------------------------|---------------------------|
|------------------------|-------------------11-8----|
|-----9-11-9b10----------|------------------------11-|
|-/11------------11-10-9-|-(9)-----------------------|
|------------------------|-----11-9-7b8--/11---------|


  E Q      E  E E  Q        +Q
|------------------------|------------|
|------------------------|------------|
|-----------------11b13r=|=(11)b13----|
|-9-9b11-----------------|------------|
|---------11-10-9--------|------------|
|------------------------|------------|





Duration Legend
---------------
W - whole; H - half; Q - quarter; E - 8th; S - 16th; T - 32nd; X - 64th; a - acciaccatura
+ - note tied to previous; . - note dotted; .. - note double dotted
Uncapitalized letters represent notes that are staccato (1/2 duration)
Irregular groupings are notated above the duration line
Duration letters will always appear directly above the note/fret number it represents the
duration for.  Duration letters with no fret number below them represent rests.  Multi-
bar rests are notated in the form Wxn, where n is the number of bars to rest for.  Low
melody durations appear below the staff

Tablature Legend
----------------
 h   - hammer-on
 p   - pull-off
 b   - bend
 pb  - pre-bend
 r   - bend release (if no number after the r, then release immediately)
 /\  - slide into or out of (from/to "nowhere")
 s   - legato slide
 S   - shift slide
 - natural harmonic
[n]  - artificial harmonic
n(n) - tapped harmonic
 ~   - vibrato
 tr  - trill
 T   - tap
 TP  - trem. picking
 PM  - palm muting
\n/  - tremolo bar dip; n = amount to dip
 \n  - tremolo bar down
 n/  - tremolo bar up
/n\  - tremolo bar inverted dip
 =   - hold bend; also acts as connecting device for hammers/pulls
 <> - volume swell (louder/softer)
 x   - on rhythm slash represents muted slash
 o   - on rhythm slash represents single note slash

Misc Legend
-----------
 |  - bar
||  - double bar
||o - repeat start
o|| - repeat end
*|  - double bar (ending)
 :  - bar (freetime)
 $  - Segno
 &  - Coda
Tempo markers -  = BPM(8/16=s8/s16), where s8 = swing 8ths, s16 = swing 16ths





Comments


Popular Queens Of The Stone Age tabs & chords
Everybody Knows That You Are Insane 2 Bass Tabs
How To Handle A Rope 4 Bass Tabs
I Appear Missing 2 Bass Tabs
In The Fade 5 Bass Tabs
The Lost Art Of Keeping A Secret 3 Bass Tabs
Kalopsia 2 Chords
Smooth Sailing Chords
Skin On Skin Tabs
Suture Up Your Future 1 Tabs
You Think I Ain Worth A Dollar Tabs


Song lyrics



↑ Back to top | Tablatures and chords are parodies/interpretations of the original songs. You may use it for private study, scholarship, research or language learning purposes only
© 2014 AZChords.com Contact us | Privacy policy | DMCA | Add/correct tabs | Request tabs | Top 50 tabs