» » »

Queens Of The Stone Age, Autopiolet Tabs (ver.1)

Artists:  A B C D E F G H I J K L M N O P Q R S T U V W X Y Z # 

Autopiolet Tabs (ver.1)

Queens Of The Stone Age Tabs
 Rating:
4/5 (4 votes)
Autopiolet lessons Tabs too difficult? Try these video lessons and learn fast
1
                

detune all strings two whole steps 

h hammer-on 
   

intro/verse 


1-----------11----------------------------------------------------------------- 
2-----------11----------------------------------------------------------------- 
3------------------------------------------------------------------------------ 
4------------------------------------------------------------------------------ 
5--11h13-13-----11h13-13-11--11-11h13--13--13--11h13--13-13-11--11-11--11-11h13    
6--11----11-----11----11-11--11-11-----14--14--14-----14-14-13--13-13--13-11---    


chorus 


4-----------13-----------------9----------------10------------------6----------    
5-----------13-----------------9----------------10------------------6----------    
6-----------11-----------------7----------------8-------------------4----------    


bridge, maybe play it as barre chords 


3--9----------------9----------------    
4--9---9---11---6---9---9---11---11--    
5--7---9---11---6---7---9---11---11--  repeat once 
6------7---9----4-------7---9----9---
            
Submit corrections

comments powered by Disqus
↑ Back to top | Queens Of The Stone Age Tabs for Autopiolet. Lyrics for acoustic guitar and electric guitar. 1 Tablatures and chords are parodies/interpretations of the original songs. You may use it for private study, scholarship, research or language learning purposes only