» » »

Queens Of The Stone Age, Auto Pilot Tabs (ver.4)

Artists:  A B C D E F G H I J K L M N O P Q R S T U V W X Y Z # 

Auto Pilot Tabs (ver.4)

Queens Of The Stone Age Tabs
 Rating:
4.8/5 (25 votes)
Auto Pilot lessons Tabs too difficult? Try these video lessons and learn fast
1
                ------------------------------------------------------------------------
AUTO PILOT - Queens of the Stone Age
------------------------------------------------------------------------

Tuning: C F Bb Eb G C

If you're playing with standard tuning (like me) and you don't wanna mess around
with your guitar strings, just play each note four frets below the note tabbed. Enjoy!


Intro/Verse
e|------------------------------------------------------------------|
B|------------------------------------------------------------------|
G|---------15-------------------------------------------------------|
D|---------13-------------------------------------------------------|
A|-11h13--------11h13-11-11-11h13-13-13-11h13--13-11-11-11-11-11----|
E|-11-----------11----11-11-11----14-14-14-----14-13-13-11-11-11h13-|

Intro lead
e|------11------11-11/13\11-11/13\11-11h13p11-9h11---------------------|
B|-9/11----9/11------------------------------------9p7------------9-11-|
G|-----------------------------------------------------8---6-8h11------|
D|---------------------------------------------------------------------|
A|---------------------------------------------------------------------|
E|---------------------------------------------------------------------|

Verse fill 1 (He throws these in. Optional)
e|--11/13\11---|
B|-------------|
G|-------------|
D|-------------|
A|-------------|
E|-------------|


Chorus
e|-------------------------------------------------------------|
B|-------------------------------------------------------------|
G|-8-8-8-8-8--8-8----------------------------------------------|
D|-8-8-8-8-8--8-8-9-9-9-9-9--9-9-6-6-6-6-6--6-6-6-6-6-6-6--6-6-|
A|-6-6-6-6-6--6-6-9-9-9-9-9--9-9-6-6-6-6-6--6-6-6-6-6-6-6--6-6-|
E|----------------7-7-7-7-7--7-7-4-4-4-4-4--4-4-4-4-4-4-4--4-4-|

Chorus Lead A
e|------------------------------------------------|
B|------------------------------------------------|
G|-13/15\13--13/15\13--11h13---------------11-----|
D|---------------------------13--13--11-13----13--|
A|------------------------------------------------|
E|------------------------------------------------|

Chorus Lead B (He also throws these in. Not as optional. Listen for them in the song)
e|-11/13\11--11/13\11--9h11--------------11-----|
B|--------------------------11--11--9-11----11--|
G|----------------------------------------------|
D|----------------------------------------------|
A|----------------------------------------------|
E|----------------------------------------------|

Chorus Lead C (Josh has some of this during the finale)
e|-16/18\16--16/18\16--14h16----------------------|
B|---------------------------16--16--14/16/19\16--|
G|------------------------------------------------|
D|------------------------------------------------|
A|------------------------------------------------|
E|------------------------------------------------|


Break
These sound like they're in standard tuning on acoustic guitar.
If you want to play this part on your downtuned guitar, just add 4 frets.

e|-----------------------------0-0-0-0-0--0-0-0-0-0-0-0-0---|
B|-1-1-1-1-1--1-3-3-3-3-3-3-3--2-2-2-2-2--2-0-0-0-0-0-0-0---|
G|-0-0-0-0-0--0-4-4-4-4-4-4-4--2-2-2-2-2--2-0-0-0-0-0-0-0---|
D|-2-2-2-2-2--2----------------2-2-2-2-2--2-2-2-2-2-2-2-2---|
A|-3-3-3-3-3--3-2-2-2-2-2-2-2--0-0-0-0-0--0-2-2-2-2-2-2-2---|
E|------------------------------------------0-0-0-0-0-0-0---|
Cont'd
e|-----------------------------0-0-0-0-0--0-0-0-0-0-0-0-0---|
B|-1-1-1-1-1--1-3-3-3-3-3-3-3--2-2-2-2-2--2-2-2-2-2-2-2-2---|
G|-0-0-0-0-0--0-4-4-4-4-4-4-4--2-2-2-2-2--2-2-2-2-2-2-2-2---|
D|-2-2-2-2-2--2----------------2-2-2-2-2--2-2-2-2-2-2-2-2---|
A|-3-3-3-3-3--3-2-2-2-2-2-2-2--0-0-0-0-0--0-0-0-0-0-0-0-0---|
E|----------------------------------------------------------|

SONG ORDER
Intro
Verse
Chorus w/ Lead A
Verse
Chorus w lead A and B
Break
Chorus w/ Leads A, B, and C


LYRICS
Silent hell on the marble slab
The best trip that I've ever had
Higher than a jet plane, pass it around
My drinks on empty, need another round

[chorus:]
I wanna fly, wanna ride with you
Is this the best that you can do?
I wanna fly, wanna ride with you
Higher than a jet plane with you

Will we arrive in the middle of nowhere
Don't act like you know, I been here so many times
I never seen you before
But now that I have, I don't wanna see you no more

Higher than a jet plane with you
Higher than a jet plane with you

[repeat chorus]

Ah-ah, auto pilot no control
Ah-ah, ahh
Ah-ah, auto pilot no control
Ah-ah, ahh

Higher than a jet plane with you
Higher than a jet plane with you

[repeat chorus]


| /  slide up
| \  slide down
| h  hammer-on
| p  pull-off
| ~  vibrato
| +  harmonic
| x  Mute note
===============================================================================
            
Submit corrections

comments powered by Disqus
↑ Back to top | Queens Of The Stone Age Tabs for Auto Pilot. Lyrics for acoustic guitar and electric guitar. 1 Tablatures and chords are parodies/interpretations of the original songs. You may use it for private study, scholarship, research or language learning purposes only