» » »

Auto Pilot Tabs (ver.2)

Artists:  A B C D E F G H I J K L M N O P Q R S T U V W X Y Z # 

Auto Pilot Tabs (ver.2)

Queens Of The Stone Age
Rating:
4/5 (17 votes)

Tabs too difficult? Try these video lessons and learn fast.
                b - bend
r – release (unbend)
h – hammer on
p – pull off
~ - vibrato 
/ - slide ( /(0) this means slide up ) 

This is the lead guitar part as played by Josh Homme

00:20 - Intro

e|------------------------------------------------------|
B|-------12~~----12~~--12b14r12---12b14r12--------------|
G|----10------10----------------------------------------|
D|------------------------------------------------------|
A|------------------------------------------------------|
E|------------------------------------------------------|

e|------------------------------------------------------|
B|---12b13r12-10h12p10----------------------------------|
G|---------------------11-----------7h9---9b10----------|
D|------------------------9~~~--7h9---------------------|
A|------------------------------------------------------|
E|------------------------------------------------------|

This is a cool riff that Josh plays live as Nick starts to sing, but is NOT on the record.

‘Saw you lying there…’

e|------------------------------------------------------|
B|----10~~~/12/9----------------------------------------|
G|----------------2h4~~~----------------2---------------|
D|-----------------------4p2h4------2h4---4~~~----------|
A|------------------------------------------------------|
E|------------------------------------------------------|


1st Chorus

e|------------------------------------------------------|
B|------------------------------------------------------|
G|--9b10r9~~9b10r9~~-7h9---------7----------------------| 
D|-----------------------9~9~7h9---9~~~-----------------|
A|------------------------------------------------------|
E|------------------------------------------------------|

Another cool riff Josh plays live; again not on the record.

‘…middle of nowhere…’

e|---7--------------------------------------------------|
B|-----7-7-7/10-10-9/12~~--9/10/7~~-9--5--7-0-----------|
G|------------------------------------------------------|
D|------------------------------------------------------|
A|------------------------------------------------------|
E|------------------------------------------------------|


1:36

e|------------------------------------------------------|
B|--12b14~~~r12/(0)--------12b14r12-12b14-r12/(0)-------|
G|------------------------------------------------------|
D|------------------------------------------------------|
A|------------------------------------------------------|
E|------------------------------------------------------|

2nd Chorus

1st, 2nd and 4th bar (2nd bar don’t play the last note)

e|------------------------------------------------------|
B|------------------------------------------------------|
G|--9b10r9~~9b10r9~~-7h9---------7----------------------| 
D|-----------------------9~9~7h9---9~~~-----------------|
A|------------------------------------------------------|
E|------------------------------------------------------|

3rd bar

e|------------------------------------------------------|
B|--12b14r12~~12b14r12~~-10h12------------10------------|
G|-----------------------------11~11~9h11----11~~~------|
D|------------------------------------------------------|
A|------------------------------------------------------|
E|------------------------------------------------------|

2:47

e|------------------------------------------------------|
B|--12b14~~~r12/(0)---------12b14~~~r12-----------------|
G|------------------------------------------------------|
D|------------------------------------------------------|
A|------------------------------------------------------|
E|------------------------------------------------------|

3rd Chorus

1st, 2nd and 3rd bar

e|------------------------------------------------------|
B|------------------------------------------------------|
G|--9b10r9~~9b10r9~~-7h9---------7----------------------| 
D|-----------------------9~9~7h9---9~~~-----------------|
A|------------------------------------------------------|
E|------------------------------------------------------|

4th bar

e|------------------------------------------------------|
B|----------------------12-12-10h12/14/12~~-------------|
G|--9b10r9~~9b10r9~~-7----------------------------------| 
D|------------------------------------------------------|
A|------------------------------------------------------|
E|------------------------------------------------------|

5th bar

e|------------------------------------------------------|
B|--12b14r12~~12b14r12~~-10h12------------10------------|
G|-----------------------------11~11~9h11----11~~~------|
D|------------------------------------------------------|
A|------------------------------------------------------|
E|------------------------------------------------------|

6th bar

e|-----------------------13b14-12-12-10h12--------------|
B|--12b14r12~~12b14r12~~-------------------12~~~---------
G|------------------------------------------------------|
D|------------------------------------------------------|
A|------------------------------------------------------|
E|------------------------------------------------------|

To the end:

e|--12b14r12~~12b14r12~~10h12-------------10------------|
B|----------------------------12-12-10h12----12~~~------|
G|------------------------------------------------------|
D|------------------------------------------------------|
A|------------------------------------------------------|
E|------------------------------------------------------|


Enjoy!
            
Tabs too difficult? Try these video lessons and learn fast.




comments powered by Disqus
↑ Back to top | Tablatures and chords are parodies/interpretations of the original songs. You may use it for private study, scholarship, research or language learning purposes only