>
 >
All The Same

All The Same Guitar Tabs

Queens Of The Stone Age - All The Same chords, tabs, tablatures, lyrics

Guitar lessons | Add/correct | Request | Top 50 tabs Artists:  A B C D E F G H I J K L M N O P Q R S T U V W X Y Z 0-9

All The Same Guitar Tabs – Queens Of The Stone Age

CD, Sheet music, Poster

Do you like All The Same? Share with your friends now
Tabs
Band- Queens Of The Stone Age
Song- All The Same

it's in E Tuning, the only song i know where Josh Homme doesn't play in C

(guitar 1)
|-0---0---0---0---------0---0---0----0----|
|-9---9---9---7h9p7\5h7-8---8--/12---10---| (on the third time hit the 10th on the high 
a few times where
|-----------------------------------------| it sounds right to you at)
|-----------------------------------------| (clean)
|-----------------------------------------| x5
|-----------------------------------------|

|-0---0---0---0---------0---0---0----0----|
|-9---9---9---7h9p7\5h7-8---8--/12---10---|
|-----------------------------------------|
|-----------------------------------------| (distortion)
|-----------------------------------------| x2
|-----------------------------------------|

|-0---0-10-0-10-0---------0---0---0----0----0---0---0---0---------0---0---0----0----|
|-9---9----9----7h9p7\5h7-8---8--/12---10---9---9---9---7h9p7\5h7-8---8--/12---10---|
|-----------------------------------------------------------------------------------|
|-----------------------------------------------------------------------------------|
|-----------------------------------------------------------------------------------| x1
|-----------------------------------------------------------------------------------|

(guitar 2, enters when guitar 1 goes into distortion)
|--------------------------------------------------------|
|--------------------------------------------------------|
|-9-9-9--9-----9-9-9--9-----7-7-7--7---------------------|
|-9-9-9--9-----9-9-9--9-----7-7-7--7-----4-4-4---5-5-5---|
|-7-7-7--7-----7-7-7--7-----5-5-5--5-----4-4-4---5-5-5---|
|----------------------------------------2-2-2---3-3-3---|

------------------------------------------------------------|
------------------------------------------------------------|
-9-9-9--9-----9-9-9--9-----12-12-12--12---------------------|
-9-9-9--9-----9-9-9--9-----12-12-12--12-----4-4-4-4-5-5-5-5-|
-7-7-7--7-----7-7-7--7-----10-10-10--10-----4-4-4-4-5-5-5-5-|
--------------------------------------------2-2-2-2-3-3-3-3-|

--------------------------------------------------------|
--------------------------------------------------------|
-9-9-9--9-----9-9-9--9-----7-7-7--7---------------------|
-9-9-9--9-----9-9-9--9-----7-7-7--7-----4-4-4---5-5-5---|
-7-7-7--7-----7-7-7--7-----5-5-5--5-----4-4-4---5-5-5---|
----------------------------------------2-2-2---3-3-3---|

------------------------------------------------------------|
------------------------------------------------------------|
-9-9-9--9-----9-9-9--9-----12-12-12--12-----11------12------|
-9-9-9--9-----9-9-9--9-----12-12-12--12-----11------12------|
-7-7-7--7-----7-7-7--7-----10-10-10--10-----9-------10------|
------------------------------------------------------------|

verse riff

(both guitars)
|-------------------------------------------|
|-------0--------------------0--------0-----|
|-------1----------1------0--0-----0--0-----|
|-2--2--2-----0h2--2------2--2-----2--2--0--|
|-2--2--2--2-------2---3-----------3-----3--|
|-0--0-----------------0--------------------|

first chorus

(both guitars)
|------------------------------------------------------------|
|------------------------------------------------------------|
|-9-9-9--9-----9-9-9--9-----12-12-12--12---------------------|
|-9-9-9--9-----9-9-9--9-----12-12-12--12-----4-4-4-4-5-5-5-5-|
|-7-7-7--7-----7-7-7--7-----10-10-10--10-----4-4-4-4-5-5-5-5-| x3
|--------------------------------------------2-2-2-2-3-3-3-3-|

|------------------------------------------------------------|
|------------------------------------------------------------|
|-9-9-9--9-----9-9-9--9-----12-12-12--12-----11------12------|
|-9-9-9--9-----9-9-9--9-----12-12-12--12-----11------12------|
|-7-7-7--7-----7-7-7--7-----10-10-10--10-----9-------10------| x1
|------------------------------------------------------------|

intro again

(guitar 2)
|----------|
|----------|
|-9\-------|
|-9\-------|
|-7\-------| rest
|----------|

(guitar 1)
|-0---0---0---0---------0---0---0----0----|
|-9---9---9---7h9p7\5h7-8---8--/12---10---|
|-----------------------------------------|
|-----------------------------------------|
|-----------------------------------------| x3
|-----------------------------------------|

|-0---0---0---0---------0---0---0---------|
|-9---9---9---7h9p7\5h7-8---8--/12--------|
|-----------------------------------------|
|-----------------------------------------|
|-----------------------------------------|
|-----------------------------------------|

chorus lead-in

(both guitars)
|-----------------------------------------------|
|-------0--------------------0------------------|
|-------1----------1------0--0------------------|
|-2--2--2-----0h2--2------2--2--4-4-4-4-5-5-5-5-|
|-2--2--2--2-------2---3--------4-4-4-4-5-5-5-5-|
|-0--0-----------------0--------2-2-2-2-3-3-3-3-|

outro

(guitar 1)
|-0---0---0---0---------0---0---0----0----0---0-10-0-10-0---------0---0---0----0----|
|-9---9---9---7h9p7\5h7-8---8--/12---10---9---9----9----7h9p7\5h7-8---8--/12---10---|
|-----------------------------------------------------------------------------------|
|-----------------------------------------------------------------------------------|
|-----------------------------------------------------------------------------------|
|-----------------------------------------------------------------------------------|

-0-------------------------------------------------------0-0-----------------------|
-9---7---5---3\5---7\5-5\3-5---5-5p0-5p0-5---5/7-7-7/9---9-9---9-9/10---10-10/12---|
-----------------------------------------------------------------------------------|
-----------------------------------------------------------------------------------|
-----------------------------------------------------------------------------------|
-----------------------------------------------------------------------------------|

---------------------------------------------10-------------15----------------15-------|
-12-12/15-15-15-15--15--15--15-12---12-10h12----10-15-10-12----10-12-15-10-12----12-10-|
---------------------------------------------------------------------------------------|
---------------------------------------------------------------------------------------|
---------------------------------------------------------------------------------------|
---------------------------------------------------------------------------------------|

----------------15-------------------------------------------------15----------------|
-15-12-12-12-12----12-10-15-12-12-12-12-12-12-15-12-15-12-15-12-15----12-12-15-12-12-|
-------------------------------------------------------------------------------------|
-------------------------------------------------------------------------------------|
-------------------------------------------------------------------------------------|
-------------------------------------------------------------------------------------|

-------------------------------------------------------------------|
-12-12-12-12-12-12-12-15-12-12-12-12-12-12-15-15-15-15-15-15-15-15-|
-------------------------------------------------------------------|
-------------------------------------------------------------------|
-------------------------------------------------------------------|
-------------------------------------------------------------------|

-0---0---0---0---------0---0---0----0----0-10-0-10-0-10-0---------0---0---0---------|
-9---9---9---7h9p7\5h7-8---8--/12---10---9----9----9----7h9p7\5h7-8---8--/12---12---|
-------------------------------------------------------------------------------14b--|
------------------------------------------------------------------------------------|
------------------------------------------------------------------------------------|
------------------------------------------------------------------------------------|

---------------------0---0-------------------0---0---0---0---------0---0---0----0----|
-12---12---12---12---8---8---7-7-7-7-5-5-5-5-9---9---9---7h9p7\5h7-8---8--/12---10---|
-14b--14b--14b--14b------------------------------------------------------------------|
-------------------------------------------------------------------------------------|
-------------------------------------------------------------------------------------|
-------------------------------------------------------------------------------------|

-0-10-0-12-0-10-0---------0---0---0----0-----0-10-0-12-0-10-12-0--0--0---0------------------|
-9----9----9----7h9p7\5h7-8---8--/12---10----9----9----9-------9--9--8---8--7-7-7-7-5-5-5-5-|
--------------------------------------------------------------------------------------------|
--------------------------------------------------------------------------------------------|
--------------------------------------------------------------------------------------------|
--------------------------------------------------------------------------------------------|

-0---0---0---0---------0---0---0----0----0---0---0---0---------0---0---0---------|
-9---9---9---7h9p7\5h7-8---8--/12---10---9---9---9---7h9p7\5h7-8---8--/12---12---|
----------------------------------------------------------------------------14b--|
---------------------------------------------------------------------------------|
---------------------------------------------------------------------------------|
---------------------------------------------------------------------------------|

---------------------0---0-------------------0---0---0---0---------0---|
-12---12---12---12---8---8---7-7-7-7-5-5-5-5-9---9---9---7h9p7\5h7-8---|
-14b--14b--14b--14b----------------------------------------------------|
-----------------------------------------------------------------------|
-----------------------------------------------------------------------|
-----------------------------------------------------------------------|

(guitar 2, rests two bars then enters)
|----12--/-------12\10--------------12----------12\10---------10/12-----|
|----(w/slide)----------------------------------------------------------|
|-----------------------------------------------------------------------|
|-----------------------------------------------------------------------|
|-----------------------------------------------------------------------|
|-----------------------------------------------------------------------|

|-12\-7-------7/-8---8\-5---|-12\-7-------7/-8---8/-10---|
|-(w/slide)-----------------|-(w/slide)------------------|
|---------------------------|----------------------------|
|---------------------------|----------------------------|
|---------------------------|----------------------------|
|---------------------------|----------------------------|





Comments


Popular Queens Of The Stone Age tabs & chords
No One Knows 1 Drum Tabs
18 Ad Tabs
Auto Pilot Intro Tabs
Battery Acid 1 Tabs
Better Living Through Chemistry Tabs
Burn The Witch Tabs
Hispanic Impressions Tabs
If I Had A Tail 2 Tabs
Regular John 4 Tabs
The Sky Is Falling Intro Tabs


Song lyrics



↑ Back to top | Tablatures and chords are parodies/interpretations of the original songs. You may use it for private study, scholarship, research or language learning purposes only
© 2014 AZChords.com Contact us | Privacy policy | DMCA | Add/correct tabs | Request tabs | Top 50 tabs