» » »

3's & 7's Tabs (ver.4)

Artists:  A B C D E F G H I J K L M N O P Q R S T U V W X Y Z # 

3's & 7's Tabs (ver.4)

Queens Of The Stone Age
Rating:
4/5 (16 votes)

Hard to play? Try these video lessons and learn fast.
                3's and 7's
QOTSA
Tuning: C standard

Intro
|--------------------------------------------------------------------|
|--------------------------------------------------------------------|
|-xxxx-7-7-xx------7-7-xx------------xxxx-7-7-xx------7-7-xx---------|
|-xxxx-7-7-xx-1010-7-7-xx-10109-7--7-xxxx-7-7-xx-1010-7-7-xx10109-7/-|
|-xxxx-5-5-xx-8-8--5-5-xx-10109-7--7-xxxx-5-5-xx-8-8--5-5-xx10109-7/-|
|-------------8-8---------8-8-7-5--5-------------8-8--------8-8-7-5/-|

Lead
|-15s17--12s13-------------------------------|
|---------------13s15------------------------|
|----------------------12s1412s14------------|
|----------------------------------14b15--12-|
|--------------------------------------------|
|--------------------------------------------|

Verse 
|--------------------------------------------------------------------|
|--------------------------------------------------------------------|
|-xxxx-7-7-xx------7-7-xx------------xxxx-7-7-xx------7-7-xx---------|
|-xxxx-7-7-xx-1010-7-7-xx-10--9-7--7-xxxx-7-7-xx-1010-7-7-xx10--9-7--|
|-xxxx-5-5-xx-8-8--5-5-xx-10--9-7--7-xxxx-5-5-xx-8-8--5-5-xx10--9-7--|
|-------------8-8---------8-0-7-5--5-------------8-8--------8-0-7-5--|

Lead
|-15s17--12s13-------------------------------|x2
|---------------13s15------------------------|
|----------------------12s1412s14------------|
|----------------------------------14b15--12-|
|--------------------------------------------|
|--------------------------------------------|

Chorus
|-------------------------------------(x2)|-------------------|
|-----------------------------------------|-------------------|
|-----------------------------------------|-5/6-6-6-6-6-6-6-6-|
|-6-6--8-8--1010-6-6--6-6--8-8--8-8--1010-|-5/6-6-6-6-6-6-6-6-|
|-6-6--8-8--1010-6-6--6-6--8-8--8-8--1010-|-3/4-4-4-4-4-4-4-4-|
|-4-4--6-6--8-8--4-4--4-4--6-6--6-6--8-8--|-------------------|

Chorus Lead (synth like effect)
|-----------------------------------------|
|---------86---89---8---------6-6h86--6---|
|----87--------------8---87----8----87-78-|
|-----------------------------------------|
|-----------------------------------------|
|-----------------------------------------|

|-----------------------------------------|-------------------|
|---------86---89---89---------6-6h86--6--|-6~----------------|
|----87-------------------87----8----87-8-|-------------------|
|-----------------------------------------|-------------------|
|-----------------------------------------|-------------------|
|-----------------------------------------|-------------------|

Solo1
|------------------------------13---------------------------|
|-------------------------10---------10-----------13---14--/|
|--------------5----6---12b14---(14)b12-10-12p10----12b-----|
|/5b--3--3-3h5----------------------------------12----------|
|-------5-5---5--5/7----------------------------------------|
|-----------------------------------------------------------|

Verse 
|--------------------------------------------------------------------|
|--------------------------------------------------------------------|
|-xxxx-7-7-xx------7-7-xx------------xxxx-7-7-xx------7-7-xx---------|
|-xxxx-7-7-xx-1010-7-7-xx-10--9-7--7-xxxx-7-7-xx-1010-7-7-xx10--9-7--|
|-xxxx-5-5-xx-8-8--5-5-xx-10--9-7--7-xxxx-5-5-xx-8-8--5-5-xx10--9-7--|
|-------------8-8---------8-0-7-5--5-------------8-8--------8-0-7-5--|

|-15s17--12s13-------------------------------|x2
|---------------13s15------------------------|
|----------------------12s1412s14------------|
|----------------------------------14b15--12-|
|--------------------------------------------|
|--------------------------------------------|

|-15s17--12s13-------------------------------|
|---------------13s15------------------------|
|----------------------12s1412s14------------|
|----------------------------------14b15b17--|
|--------------------------------------------|
|--------------------------------------------|

|-15s17--12s13-------------------------------|
|---------------13s15------------------------|
|----------------------12s1412s14------------|
|----------------------------------14b15--12-|
|--------------------------------------------|
|--------------------------------------------|

Chorus
|-------------------------------------(x2)|-------------------|
|-----------------------------------------|-------------------|
|-----------------------------------------|-5/6-6-6-6-6-6-6-6-|
|-6-6--8-8--1010-8-8--6-6--8-8--8-8--1010-|-5/6-6-6-6-6-6-6-6-|
|-6-6--8-8--1010-8-8--6-6--8-8--8-8--1010-|-3/4-4-4-4-4-4-4-4-|
|-4-4--6-6--8-8--6-6--4-4--6-6--6-6--8-8--|-------------------|

Chorus Lead (synth like effect)
|-----------------------------------------|
|---------86---89---8---------6-6h86--6---|
|----87--------------8---87----8----87-78-|
|-----------------------------------------|
|-----------------------------------------|
|-----------------------------------------|

|----------------------11-----------------|-------------------|
|---------86---89---8h9--------6-6h86--8--|-6~----------------|
|----87-------------------87----8----87-7-|-------------------|
|-----------------------------------------|-------------------|
|-----------------------------------------|-------------------|
|-----------------------------------------|-------------------|

Bridge
|-------------------------------------------------------------------------|x2
|-------------------------------------------------------------------------|
|-------------------------------------------------------------------------|
|-------------------------------------------------------------------------|
|-7---7---10--10--9---9----9----9---8---8---11---11---121212121212-888888-|
|-5-0-5-0-8-0-8-0-7-0-7-0-10-0-10-0-9-0-9-0-12-0-12-0---------------------|

|--------------------------------------------------------------------|x2
|--------------------------------------------------------------------|
|--------------------------------------------------------------------|
|--------------------------------------------------------------------|
|-12-12--10101010--9999--88810-7777--12121212----121212121212-888888-|
|---0--0---------0-----0-----------0---------0--0--------------------|

|------------------------------|
|------------------------------|
|-2----------------------------|
|-2----------------------------|
|-0--------121212121212-888888-|
|------------------------------|

Bass solo
|--------5-5---5---------------5-5---5----|
|---3--------5---7----7------------5---7/-|
|-5---5-------------7---5-8-5-------------|
|-----------------------------------------|

Solo - listen to get the timing right
|-10--13p10-13p10-10h13p10--10--/17-----------------------------------------
|-13b---------------------13-------17---17b-17-15h17p15--15-----------------
|------------------------------------------------------17--17b--14-17----14-
|---------------------------------------------------------------------17----
|---------------------------------------------------------------------------
|---------------------------------------------------------------------------

-----------------------------------------------------------------------------
--------14~-14--10--8---11---10--6--8---/14----------14----------------------
---------------x12bx10bx13b-x12b-8b10b-----------12b---12-121212--12---------
--12/14---------------------------------------15----------------15--15-------
-----------------------------------------------------------------------10-12-
-----------------------------------------------------------------------------

--------------------------------------------------------------------------
--------------------------------------------------------------------------
--------------------------------------------------------------------------
-------------------------------------------------11-------------10--------
--10b11b10p8----10b11b10p8----10b11b11p8---8--------------810b11--10b8----
------------10------------10------------10---8/10-----8h10------------10--

------------------------------------------------------------------
------------------------------------------------------------------
---------------------7/9--9h10p9p7h9--/14-10--12p910p910p9--/12-9-
------------10----------------------------------------------------
------810b11--10p810----------------------------------------------
--8h10------------------------------------------------------------

-----------------------------------------|
-----------------------------------------|
--9h10p9p7h9---/14-10--12p910p910p9-/14--|
-----------------------------------------|
-----------------------------------------|
-----------------------------------------|

Lyrics:
Lie, lie to my face
tell me it ain't no thing
that's what i wanna hear

Take, your lie to the grave
that's what an old friend told me
look what it did for him

whoooa, whohoo...

The truth hurts so bad
wouldn't you say
so why tell it
if ignorance is bliss, then I'm in
heaven now

Run, you'll never escape
you see you go nowhere
so new you appear

Broke, laid to waste
will turn to sweet no things
that kiss you goodbye

whoooa, whohoo...

The truth hurts so bad
wouldn't you say
so why tell it
if ignorance is bliss, then I'm in
heaven now

I keep doin' it over and over again
the never ending places i never been
no one's catching on
or callin my bluff
the devil made, only we never met

What'd you do?
say it with a smile boy
making us all forget

What'd you do?
say it with a smile boy
making us all forget 

Making us all forget
            
Hard to play? Try these video lessons and learn fast. | Correct




comments powered by Disqus
↑ Back to top | Tablatures and chords are parodies/interpretations of the original songs. You may use it for private study, scholarship, research or language learning purposes only