» » »

Slept So Long Tabs (ver.1)

Artists:  A B C D E F G H I J K L M N O P Q R S T U V W X Y Z # 

Slept So Long Tabs (ver.1)

Queen Of The Damned
Rating:
0/5 (0 votes)

Hard to play? Try these video lessons and learn fast.
                Intro
E|------------------------------------|
B|------------------------------------|
G|------------------------------------|
D|------------------------------------|
A|------------------------------------|
E|-5-5-5-----5-5-5-----6-6-6---7-7-7--| x4

Chorus
E|--------------------------|
B|--------------------------|
G|--------------------------|
D|--------------------------|    x2
A|--------------------------|
E|-5---------8-----9-----12-|

Verse
E|------------------------------------|
B|------------------------------------|
G|------------------------------------|
D|------------------------------------|
A|------------------------------------|
E|-5-5-5-----5-5-5-----6-6-6---7-7-7--| x4

Chorus
E|--------------------------|
B|--------------------------|
G|--------------------------|
D|--------------------------|    x2
A|--------------------------|
E|-5---------8-----9-----12-|
            
Hard to play? Try these video lessons and learn fast. | Correct




comments powered by Disqus
↑ Back to top | Tablatures and chords are parodies/interpretations of the original songs. You may use it for private study, scholarship, research or language learning purposes only