» » »

It Wasent The Place I Had Left Tabs (ver.1)

Artists:  A B C D E F G H I J K L M N O P Q R S T U V W X Y Z # 

It Wasent The Place I Had Left Tabs (ver.1)

Queen Of The Damned
Rating:
0/5 (0 votes)

Hard to play? Try these video lessons and learn fast.
                When lestat wakes from his grave and kills that black dude

INTRO
|-3-3--3-3--3-----5-5--5-5--5-----7-7--7-7--7-----9-9--9-9-9-------| E (Top String) 
|------------------------------------------------------------------| A
|------------------------------------------------------------------| D
|--------------------------------------------------------------9-8-| G     X4
|--------------------------------------------------------------9-8-| B
|--------------------------------------------------------------9-8-| E

CHORUS
E |------------------------------------|
A |------------------------------------|
D |------------------------------------|
G |-3----3-----4-4----3---3----3-2---3-| X4
B |-3----3-----4-4----3---3----3-2---3-|
E |-3----3-----4-4----3---3----3-2---3-|

Verse
|-3-3--3-3--3-----5-5--5-5--5-----7-7--7-7--7-----9-9--9-9-9-------| E (Top String) 
|------------------------------------------------------------------| A
|------------------------------------------------------------------| D
|--------------------------------------------------------------9-8-| G     X4
|--------------------------------------------------------------9-8-| B
|--------------------------------------------------------------9-8-| E

CHORUS
E |------------------------------------|
A |------------------------------------|
D |------------------------------------|
G |-3----3-----4-4----3---3----3-2---3-| X4
B |-3----3-----4-4----3---3----3-2---3-|
E |-3----3-----4-4----3---3----3-2---3-|

Verse
|-3-3--3-3--3-----5-5--5-5--5-----7-7--7-7--7-----9-9--9-9-9-------| E (Top String) 
|------------------------------------------------------------------| A
|------------------------------------------------------------------| D
|--------------------------------------------------------------9-8-| G     X4
|--------------------------------------------------------------9-8-| B
|--------------------------------------------------------------9-8-| E

CHORUS
E |------------------------------------|
A |------------------------------------|
D |------------------------------------|
G |-3----3-----4-4----3---3----3-2---3-| X4
B |-3----3-----4-4----3---3----3-2---3-|
E |-3----3-----4-4----3---3----3-2---3-|

Verse
|-3-3--3-3--3-----5-5--5-5--5-----7-7--7-7--7-----9-9--9-9-9-------| E (Top String) 
|------------------------------------------------------------------| A
|------------------------------------------------------------------| D
|--------------------------------------------------------------9-8-| G     X4
|--------------------------------------------------------------9-8-| B
|--------------------------------------------------------------9-8-| E

CHORUS
E |------------------------------------|
A |------------------------------------|
D |------------------------------------|
G |-3----3-----4-4----3---3----3-2---3-| X4
B |-3----3-----4-4----3---3----3-2---3-|
E |-3----3-----4-4----3---3----3-2---3-|

1. Intro
2. Chorus
3. Verse
4. Chorus
5. Verse
6. Chorus X2
            
Hard to play? Try these video lessons and learn fast. | Correct




comments powered by Disqus
↑ Back to top | Tablatures and chords are parodies/interpretations of the original songs. You may use it for private study, scholarship, research or language learning purposes only