» » »

Queen Of The Damned, Forsaken Tabs (ver.1)

Artists:  A B C D E F G H I J K L M N O P Q R S T U V W X Y Z # 

Forsaken Tabs (ver.1)

Queen Of The Damned Tabs
 Rating:
4/5 (4 votes)
Forsaken lessons Tabs too difficult? Try these video lessons and learn fast
1
                Intro
E|--------------|
B|--------------|
G|--------------|
D|--------------|         x2
A|--------------|
E|-1-1--3-2-1-1-| 

Intro - Continue "Im over it...you see i'm falling in my fast abbys"
E|-------------------------------------------------------|
B|-------------------------------------------------------|
G|-------------------------------------------------------|
D|-------------------------------------------------------|
A|-------------------------------------------------------|
E|-1-1--3-2-1-1-3-3--5-4-3-3--5-5--7-6-5-5--7-7--9-8-7-7-|

Verse - My fear is fading, i cant speak it or else you will take my grave
E|------------------------------------------------------------------------|
B|------------------------------------------------------------------------|
G|------------------------------------------------------------------------|
D|------------------------------------------------------------------------|
A|------------------------------------------------------------------------|
E|-1-1-1-1-1-1-1-1-1-2-2-2-2-2-2-2-2-3-3-3-3-3-3-3-3-4-4-4-4-4-5-5-5-5-6-6|

Chorus - You see i cannot be forsaken, because i'm not the only one
With Distortion
E|-3------5---------3-------2----2--| x2
B|-3------5---------3-------2----2--|
G|-3------5---------3-------2----2--|
D|----------------------------------|
A|----------------------------------|
E|----------------------------------|

Order
1. Intro
2. Verse
3. Chorus
4. Intro
5. Verse
6. Chorus
7. Fade + Chorus x4
            
Submit corrections

comments powered by Disqus
↑ Back to top | Queen Of The Damned Tabs for Forsaken. Lyrics for acoustic guitar and electric guitar. 1 Tablatures and chords are parodies/interpretations of the original songs. You may use it for private study, scholarship, research or language learning purposes only