» » »

Queen Of The Damned, Change Tabs (ver.1)

Artists:  A B C D E F G H I J K L M N O P Q R S T U V W X Y Z # 

Change Tabs (ver.1)

Queen Of The Damned Tabs
Rating:
0/5 (0 votes)
Hard to play? Try these video lessons and learn fast.
                
D|-----------------------------------------------------------------------------------
A|-----------------------------------------------------------------------------------
F|-----------------------------------------------------------------------------------
C|---------------------------------8-8-8-7-7-7-8-8-8-7-7-7-8-8-7-7-------------------
G|-8-8-8-7-7-7-8-8-8-7-7-7-8-8-7-7-5-5-5-5-5-5-5-5-5-5-5-5-5-5-5-5-------------------
C|-0-0-0-0-0-0-0-0-0-0-0-0-0-0-0-0-5-5-5-5-5-5-5-5-5-5-5-5-5-5-5-5-------------------

“I watched a change in you”

D|----------------------------------------------------------------------------------
A|----------------------------------------------------------------------------------
F|----------------------------------------------------------------------------------
C|-0-0-0-0-0-0-0-0-0-0-0-0-0-0-0-0-8-8-8-8-8-8-8-8-8-8-8-8-8-8-8-8------------------
G|-0-0-0-0-0-0-0-0-0-0-0-0-0-0-0-0-8-8-8-8-8-8-8-8-8-8-8-8-8-8-8-8------------------
C|-0-0-0-0-0-0-0-0-0-0-0-0-0-0-0-0-8-8-8-8-8-8-8-8-8-8-8-8-8-8-8-8------------------

When he starts going “aaahhhhh,” play this:

D|----------------------------------------------------------------------------------
A|----------------------------------------------------------------------------------
F|-----------------------------------------------------------------------------------
C|-3-3-3-3-3-3-3-3-3-3-3-3-3-3-3-3-0-0-0-0-0-0-0-0-0-0-0-0-0-0-0-0-------------------
G|-3-3-3-3-3-3-3-3-3-3-3-3-3-3-3-3-0-0-0-0-0-0-0-0-0-0-0-0-0-0-0-0-------------------
C|-3-3-3-3-3-3-3-3-3-3-3-3-3-3-3-3-0-0-0-0-0-0-0-0-0-0-0-0-0-0-0-0-------------------

At the end, play this:

D|----------------------------------------------------------------------------------
A|----------------------------------------------------------------------------------
F|-----------------------------------------------------------------------------------
C|-0-0-0-0-0-0-0-0-0-0-0-0-0-0-0-0-5-5-5-5-5-5-5-5-5-5-5-5-5-5-5-5-------------------
G|-0-0-0-0-0-0-0-0-0-0-0-0-0-0-0-0-5-5-5-5-5-5-5-5-5-5-5-5-5-5-5-5-------------------
C|-0-0-0-0-0-0-0-0-0-0-0-0-0-0-0-0-5-5-5-5-5-5-5-5-5-5-5-5-5-5-5-5-------------------

That’s the whole song.  Make sure you tune it right, or it wont sound right.  E-mail me if you have any questions.
            

comments powered by Disqus
↑ Back to top | Queen Of The Damned Tabs for Change. Lyrics for acoustic guitar and electric guitar. Tablatures and chords are parodies/interpretations of the original songs. You may use it for private study, scholarship, research or language learning purposes only