» » »

Soda Dreamer Bass tabs (ver.1)

Artists:  A B C D E F G H I J K L M N O P Q R S T U V W X Y Z # 

Soda Dreamer Bass tabs (ver.1)

Queen Adreena
Rating:
0/5 (0 votes)

Hard to play? Try these video lessons and learn fast.
                All songs written by Crispin Gray and Katie Jane Garside
Tuning: low to high: E.A.D.G
* - let ring


Intro:

G:-------------------------------------------------|
D:-------------------------------------------------|
A:-------------------------------------------------|
E:-3*--3-3--3*--3-3--3*-3-3--3*-3-3--3-3-3-3-3-3-3-|


Verse:

G:--------------------------------------------|
D:------------------------3h5-5-5-5-3h5-5-5-5-|
A:-3h5-5-5-5--3h5-5-5-5-----------------------|
E:--------------------------------------------|


Chorus:

G:---------------------------------:-------------|
D:-5-5-5-5-----------------5-5-5-5-:-5-5-5-5-5-5-|
A:---------------------------------:-------------|
E:---------3-3-3-3-1-1-1-1---------:-------------|
            
Hard to play? Try these video lessons and learn fast. | Correct




comments powered by Disqus
↑ Back to top | Tablatures and chords are parodies/interpretations of the original songs. You may use it for private study, scholarship, research or language learning purposes only