» » »

Kitty Collar Tight Bass tabs (ver.1)

Artists:  A B C D E F G H I J K L M N O P Q R S T U V W X Y Z # 

Kitty Collar Tight Bass tabs (ver.1)

Queen Adreena
Rating:
0/5 (0 votes)

Hard to play? Try these video lessons and learn fast.
                
h = hammer-on
p = pull-off
~ = let note ring
^ = bend
x = mute

Tuning: Standard

Talk about a harsh bass sound? Heh.

Intro;
G|--------------------------------------
D|--------------------------------------
A|---4-4---4--4-4-4----4-4---4--4-4-----
E|-3--3-3-3--3-3-3---3--3-3-3--3-3-3-0-- x8

Now there are small gaps in bass playing with guitar mutes in them.
Listen to pick them out. It starts at "Lend your ears to me."

When the bass is playing, it plays;
G|------------
D|------------
A|---4-4---4--
E|-3--3-3-3--- x7

G|-------------------
D|-------------------
A|---4-4---4--4-4-4--
E|-3--3-3-3--3-3-3---

Back to;
G|--------------------------------------
D|--------------------------------------
A|---4-4---4--4-4-4----4-4---4--4-4-----
E|-3--3-3-3--3-3-3---3--3-3-3--3-3-3-0-- x4

Back to the "gappy" part.
G|------------
D|------------
A|---4-4---4--
E|-3--3-3-3--- x7


G|-------------------
D|-------------------
A|---4-4---4--4-4-4--
E|-3--3-3-3--3-3-3---

This again;
G|--------------------------------------
D|--------------------------------------
A|---4-4---4--4-4-4----4-4---4--4-4-----
E|-3--3-3-3--3-3-3---3--3-3-3--3-3-3-0-- x8

Song Ends.
            
Hard to play? Try these video lessons and learn fast. | Correct




comments powered by Disqus
↑ Back to top | Tablatures and chords are parodies/interpretations of the original songs. You may use it for private study, scholarship, research or language learning purposes only