» » »

Queen Adreena, For I Am The Way Tabs (ver.1)

Artists:  A B C D E F G H I J K L M N O P Q R S T U V W X Y Z # 

For I Am The Way Tabs (ver.1)

Queen Adreena Tabs
 Rating:
4/5 (4 votes)
For I Am The Way lessons Tabs too difficult? Try these video lessons and learn fast
1
                Queenadreena - For I Am The Way

Standard tuning
Lots (lots) of fuzz


-------------------


Structure
---------

Chorus (Clean + Reverb)
Verse x6 (Fuzz)
Chorus
Verse x6
Chorus
Repeat G and B to fade (Clean + Reverb)




Verse
-----

   G         B        G
e|-----------------------------------------------|
B|-----------------------------------------------|
G|-----------4-44444-----------------------------|
D|--5-55555--4-44444--5-555555-------------------|
A|--5-55555--2-22222--5-555555--9s8-8s7-7s6-6s4--|
E|--3-33333-----------3-333333--7s6-6s5-5s4-4s3--|




Chorus (For I am the way, For I am the way)
------

    G        B        G        B        G        B        Bb (acci)     Asus2
e|------------------------------------------------------------------------------------|
B|------------------------------------------------------------------------------------|
G|-----------4-44444-----------4-44444-----------4-44444--3-3-333-3333--2-2-222-2222--|
D|--5-55555--4-44444--5-55555--4-44444--5-55555--4-44444--3-3-333-3333--2-2-222-2222--|
A|--5-55555--2-22222--5-55555--2-22222--5-55555--2-22222--1-1-111-1111--0-0-000-0000--|
E|--3-33333-----------3-33333-----------3-33333---------------------------------------|




Lyrics
------

For I am the way,
Burn all effigies of clay,
Walk on water today,
For I am the way (x2)

Today I turn my blood to sweetest wine,
A holy song imbued with the divine,
Today's the day the gods walk out on me,
The great divide is crossed for you by me,

For I am the way,
Burn all effigies of clay,
Walk on water today,
For I am the way (x2)

Today the silent one does have her say,
Today all contradictions seem o.k,
Today's the day that I become the sky,
A silent understanding my oh my,

For I am the way,
Burn all effigies of clay,
Walk on water today,
For I am the way (x2)

Today for once I'm not the last to learn,
Today the only bridge I have I burn,
Today's the day the gods walk out on me,
The great divide is crossed for you by me,

For I am the way (x4)
            
Submit corrections

comments powered by Disqus
↑ Back to top | Queen Adreena Tabs for For I Am The Way. Lyrics for acoustic guitar and electric guitar. 1 Tablatures and chords are parodies/interpretations of the original songs. You may use it for private study, scholarship, research or language learning purposes only