» » »

F M Doll Tabs (ver.1)

Artists:  A B C D E F G H I J K L M N O P Q R S T U V W X Y Z # 

F M Doll Tabs (ver.1)

Queen Adreena
Rating:
0/5 (0 votes)

Hard to play? Try these video lessons and learn fast.
                tuning: D,A,D,G,B,E,



INTRO:
Katie mumbles..
e:-7--7--7--7--7--7--7--7-----5-5-5-5-5-5-5-5--|
B:-10-10-10-10-10-10-10-10----8-8-8-8-8-8-8-8--|
G:-9--9--9--9--9--9--9--9-----7-7-7-7-7-7-7-7--|
D:-7--7--7--7--7--7--7--7-----5-5-5-5-5-5-5-5--|  X2
A:---------------------------------------------|
D:---------------------------------------------|

VERSE:

e:------------------------------------------|
B:------------------------------------------|
G:------------------------------------------|
D:-7--7-7-5--7-7-7-5--7-7-5h7-5-5h7-5-5h7-5-|
A:-7--7-7-5--7-7-7-5--7-7-5h7-5-5h7-5-5h7-5-|
D:-7--7-7-5--7-7-7-5--7-7-5h7-5-5h7-5-5h7-5-|


CHORUS:
Strippety Strip!
e:----------------------------|
B:----------------------------|
G:----------------------------|
D:-7--5-7--5-7--5-7--5--5-7-5-|
A:-7--5-7--5-7--5-7--5--5-7-5-|
D:-7--5-7--5-7--5-7--5--5-7-5-|

SOLO:
e:--------|
B:--------|
G:-8^-\-3-|
D:--------|
A:--------|
D:--------|
use a whammy and stuff..


x
Vicky
            
Hard to play? Try these video lessons and learn fast. | Correct




comments powered by Disqus
↑ Back to top | Tablatures and chords are parodies/interpretations of the original songs. You may use it for private study, scholarship, research or language learning purposes only