» » »

Desert Lullaby Bass tabs (ver.1)

Artists:  A B C D E F G H I J K L M N O P Q R S T U V W X Y Z # 

Desert Lullaby Bass tabs (ver.1)

Queen Adreena
Rating:
0/5 (0 votes)

Tabs too difficult? Try these video lessons and learn fast.
                
h = hammer-on
p = pull-off
~ = let note ring
^ = bend
x = mute

Tuning: Standard

Lots of white noise to start, then a distorted sounding... uh... thing.

Bass comes in at 22 seconds with;
G|----------------------------------------------------------
D|----------------------------------------------------------
A|----------------------------------------------------------
E|-0-0-0-0--0--00-0-0-0-0--0--00-0-0-0-0--0--00-0-0-0-0--0--

G|-----------------------------------------------------------------
D|-----------------------------------------------------------------
A|-----------------------------------------------------------------
E|-00-5-5-5-5--5--55-5-5-5-5--5--55-0-0-0-0--0--00-0-0-0-0--0--00--

G|----------------------------------------------------------
D|----------------------------------------------------------
A|----------------------------------------------------------
E|-0-0-0-0--0--00-0-0-0-0--0--00-0-0-0-0--0--00-0-0-0-0--0--

G|-----------------------------------------------------------------
D|-----------------------------------------------------------------
A|-----------------------------------------------------------------
E|-00-5-5-5-5--5--55-5-5-5-5--5--55-0-0-0-0--0--00-0-0-0-0--0--5\--

Break until 1:49

Play the above part through again until the bass cuts out at 2:55

Bass comes back in at 3:16
Just play the riff through as many times as needed until the song finishes.
            
Tabs too difficult? Try these video lessons and learn fast.


comments powered by Disqus
↑ Back to top | Tablatures and chords are parodies/interpretations of the original songs. You may use it for private study, scholarship, research or language learning purposes only