» » »

Queen Adreena, Cold Fish Bass tabs (ver.2)

Artists:  A B C D E F G H I J K L M N O P Q R S T U V W X Y Z # 

Cold Fish Bass tabs (ver.2)

Queen Adreena Tabs
Rating:
0/5 (0 votes)
Cold Fish lessons Tabs too difficult? Try these video lessons and learn fast
                There is a *** lot of distortion

Verse

G|-------------------------------------------------------------|
D|-------------------------------------------------------------|
A|--------------------2-2-2-2-2-2-2--4-4-4-4-4-4-4-------------I
E|---3-3-3-3-3-3-3-3-------------------------------------------|

,,,taunt and bate me

G|-------------------------------------------------------------|
D|-------------------------------------------------------------|
A|---2-2-2-2-2-2-2---4-4-4-4-4-4-4-----------------------------I
E|-------------------------------------------------------------|


.....coldfish
G|-------------------------------------------------------------|
D|-------------------------------------------------------------|
A|-------------------------------------------------------------I
E|----2-2-2-2-2-2-2-2-2-2-2-2-2-2--3---------------------------|

Enjoy playing along

love sean
----x----
            
Submit corrections

comments powered by Disqus
↑ Back to top | Queen Adreena Bass for Cold Fish. Lyrics for acoustic guitar and electric guitar. Tablatures and chords are parodies/interpretations of the original songs. You may use it for private study, scholarship, research or language learning purposes only