» » »

Cold Fish Bass tabs (ver.1)

Artists:  A B C D E F G H I J K L M N O P Q R S T U V W X Y Z # 

Cold Fish Bass tabs (ver.1)

Queen Adreena
Rating:
0/5 (0 votes)

Tabs too difficult? Try these video lessons and learn fast.
                
h = hammer-on
p = pull-off
~ = let note ring
^ = bend
x = mute

Tuning: Standard

Distorted sounding intro, then bass comes in at 10 seconds;
G|-----------------------------------------------------
D|-----------------------------------------------------
A|------------------1111111111111111-3333333333333333--
E|-3333333333333333------------------------------------ x3

First you play lots and lots of 3's, the number below isn't exact;
G|----------------------------------------------------
D|----------------------------------------------------
A|----------------------------------------------------
E|-3-3-3-3-3-3-3-3-3-3-3-3-3-3-3-3-3-3-3-3-3-3-3-3-3--

Then when she stops singing "Cold Fish" and the guitar part comes in too;
G|---------------------
D|---------------------
A|---------------------
E|-4-4-4-4-4-4-4-4-3~--

Back to;
G|-----------------------------------------------------
D|-----------------------------------------------------
A|------------------1111111111111111-3333333333333333--
E|-3333333333333333------------------------------------ x3

"Cold Fish" part;
G|----------------------------------------------------
D|----------------------------------------------------
A|----------------------------------------------------
E|-3-3-3-3-3-3-3-3-3-3-3-3-3-3-3-3-3-3-3-3-3-3-3-3-3--

G|---------------------
D|---------------------
A|---------------------
E|-4-4-4-4-4-4-4-4-3~--

Then to;
G|----------------------------------------------------------------------
D|----------------------------------------------------------------------
A|------------------1111111111111111-3333333333333333-------------------
E|-3333333333333333-----------------------------------3333333333333333-- x2

G|---------------------
D|---------------------
A|---------------------
E|-4-4-4-4-4-4-4-4-3~--

Song ends.
            
Tabs too difficult? Try these video lessons and learn fast.




comments powered by Disqus
↑ Back to top | Tablatures and chords are parodies/interpretations of the original songs. You may use it for private study, scholarship, research or language learning purposes only