» » »

Queen Adreena, Are The Songs My Disease? Bass tabs (ver.1)

Artists:  A B C D E F G H I J K L M N O P Q R S T U V W X Y Z # 

Are The Songs My Disease? Bass tabs (ver.1)

Queen Adreena Tabs
 Rating:
4/5 (4 votes)
Are The Songs My Disease? lessons Tabs too difficult? Try these video lessons and learn fast
                
h = hammer-on
p = pull-off
~ = let note ring
^ = bend
x = mute

Tuning: Standard

Bass doesn't come in for 51 seconds.

At the end of each line there is a lone guitar part;
G|--------------------------------------------------
D|-----2-------------3-------------5-------3--------
A|--------------------------------------------------
E|-0-0---0-0-0---1-1---1-1-1---3-3---3\1-1---1-0-0-- x3

Katie sings "Are the songs my disease?"

Bass comes back in about 1:34;
G|------------------------------------------------------------
D|-----5-------------7-------------3333-----2222-----2--------
A|------------------------------------------------------------
E|-3-3---3-3-3---5-5---5-5-5---1-1------0-0------0-0---0-0-0-- x4

Small break.

Bass comes back in with;
G|-------------------------------------------------------------
D|-----2-------------3-------------5555-----3333------2--------
A|-------------------------------------------------------------
E|-0-0---0-0-0---1-1---1-1-1---3-3------1-1-------0-0---0-0-0-- x3

Small break again.

Slide back into;
G|----------------------------------------------------------
D|-----2-------------3-------------5-------3-------2--------
A|----------------------------------------------------------
E|-0-0---0-0-0---1-1---1-1-1---3-3---3\1-1---1-0-0---0-0-0-- 

G|-------------------------------------------------
D|-----2-------------3-------------5-------3-------
A|-------------------------------------------------
E|-0-0---0-0-0---1-1---1-1-1---3-3---3\1-1---1-0~-- 

Song ends.
            
Submit corrections

comments powered by Disqus
↑ Back to top | Queen Adreena Bass for Are The Songs My Disease?. Lyrics for acoustic guitar and electric guitar. Tablatures and chords are parodies/interpretations of the original songs. You may use it for private study, scholarship, research or language learning purposes only