» » »

You Dont Fool Me Tabs (ver.1)

Artists:  A B C D E F G H I J K L M N O P Q R S T U V W X Y Z # 

You Dont Fool Me Tabs (ver.1)

Queen
Rating:
0/5 (0 votes)

Tabs too difficult? Try these video lessons and learn fast.
                                             queen-you dont fool me.

tunning-standard
solo  2"19

|-----------------------------------------------------|
|-----------------------------------------------------|
|-14b16-----1414b16--12-----14b16--12h14---x12--------|
|--------------------------x--------------------13----|
|-----------------------------------------------------|
|-----------------------------------------------------|

|---------------------------------------------------------|
|-------17b19___r-17-----------------13b15___r-13-15b16---|
|-16-----------------16v----(14)12------------------------|
|-------------------with----------------------------------|
|------------------tremolo--------------------------------|
|---------------------------------------------------------|

|-----------------------------------------15------15-17b19__r17p15-17__ph---|
|---------------------12--------12---15--------15---------------------------|
|-----------12---12--------12-----------------------------------------------|
|------12-------------------------------------------------------------------|
|-14------------------------------------------------------------------------|
|---------------------------------------------------------------------------|

|---17b19__r17---------|-12------12--12-------12h15p12----12-|------|
|-x------------15__\---|-15b17v------------15----------15----|------|
|-x--------------------|-------------------------------------|-0/---|
|----------------------|-------------------------------------|-/0---|
|----------------------|--------------------------------------------|three
|----------------------|--------------------------------------------|times

|-12-------------------------------------------------------------------|
|-15b17----17r15p13-12-13p12-13p12-------------------------------------|
|----------------------------------14p12-14p12-11-12p11----11----------|
|-------------------------------------------------------14----14p12----|
|-------------------------------------------------------------------14-|
|----------------------------------------------------------------------|

|-------------------------------------|
|-------________----------------------|
|-11-12-11h12p11--11------------------|
|---------------14---14p12----12-14---|
|--------------------------14---------|
|-------------------------------------|
i think theres a bit more but this version gives you a rough idea what the rest is, 
to the track alot untill you get it right.
enjoy.
            
Tabs too difficult? Try these video lessons and learn fast.




comments powered by Disqus
↑ Back to top | Tablatures and chords are parodies/interpretations of the original songs. You may use it for private study, scholarship, research or language learning purposes only