» » »

Queen, You And I Bass tabs (ver.1)

Artists:  A B C D E F G H I J K L M N O P Q R S T U V W X Y Z # 

You And I Bass tabs (ver.1)

Queen Tabs
Rating:
0/5 (0 votes)
You And I lessons Tabs too difficult? Try these video lessons and learn fast
                

G--9h11-------------------------------------------|
D-----------9h12-9------------------------4-5-7---|
A------------------12--------10--9--7---5---------|
E---------------------10--------------------------|


G------7--4-------------------------7---------------------7--4-------------------------------------|
D------------7------7--4---------9-----9------------------------7-------7--4---------------4-5-7---|
A--5---------------------7----------------------------5-----------------------7-----------5--------|
E---------------5------------7------------3-3-3-3--4----------------5------------3--2--0-----------|


G-------------------------------------------------------------------------------------------------------------|
D------5--5-------------5--5--5-----------------------------------5--5-------------5--5--5---/6---6\--------7-|
A-----------2-3-5---------------5-5--5--5--5--5-5--5--3-2--------------2-3-5--------------------7-------4-7---|
E-3-3--------------3-3------------------------------------5--3-3--------------3-3----------0----------5-------|


G--12----12-11----11-10----9------------------------------|
D-------------------------------10----10-9----9-8----7----|
A---------------------------------------------------------|
E---------------------------------------------------------|


G-------------------------------/7-6-4---------|-------------------------------------------------------------|
D--------------------------------------4-------|--------------------4-5-7--7-7-7-7-8-888---------------4-6-7-|
A----------------------------------------5-4---|-4-5--555--555--555-----------------------------4-5-7--------|
E-6--6-6--6--6--6-6--6--7--7-7---------------7-|-----------------------------------------7--777--------------|
            

comments powered by Disqus
↑ Back to top | Queen Bass for You And I. Lyrics for acoustic guitar and electric guitar. Tablatures and chords are parodies/interpretations of the original songs. You may use it for private study, scholarship, research or language learning purposes only