» » »

We Will Rock You Fast Tabs (ver.1)

Artists:  A B C D E F G H I J K L M N O P Q R S T U V W X Y Z # 

We Will Rock You Fast Tabs (ver.1)

Queen
Rating:
0/5 (0 votes)

Hard to play? Try these video lessons and learn fast.
                We Will Rock You (Fast)
Queen. Words and music by Brian May


This version may differ from various live performances, but this is the jist of 
it. I transcripted the recorded version.

Intro:

Rythmn Guitar
  Repeat 4 Times                            Repeat 4 times
1|-----------------------------------------|---------------------------------------|
2|-----------------------------------------|---------------------------------------|
3|*---------------------------------------*|*-------------------------------------*|
4|*--9---11---9---11--9--9---11--9----11--*|*-9--9--11-9--9--11-9--9--11-9--9--11-*|
5|---7---7----7---7---7--7---7---7----7----|--7--7--7--7--7--7--7--7--7--7--7--7---|
6|-----------------------------------------|---------------------------------------|

Lead Guitar
The Lead Guitar                           1|---------------------------------------|
Kicks with drums In when the              2|--9--9--10p9---10p9-9--9--10p9--10p9---|
Rythmn Guitar double times                3|*-9--9--9------9----9--9--9-----9-----*|
                                          4|*-9--9--9------9----9--9--9-----9-----*|
                                          5|--7-----------------7------------------|
                                          6|---------------------------------------|


Part 2:
Rythmn Guitar           *Let Ring
1|-------------------------------|
2|--12--12--7--7--5--5--2--------|
3|--12--12--7--7--5--5--2--------|
4|--12--12--7--7--5--5--2--------|
5|--10--10--5--5--3--3--0--------|
6|-------------------------------|

Lead
1|-------------------------------|
2|--12--12--7--7--5--5-----------|
3|--12--12--7--7--5--5-----------|
4|--12--12--7--7--5--5-----------|
5|--10--10--5--5--3--3-----------|
6|----------------------5-4-3-0--|


Part 3:
Verse & Chorus

Rythmn Guitar
1|---------------------------------------|---------------------------------------|
2|---------------------------------------|---------------------------------------|
3|*--------------------------------------|--------------------------------------*|
4|*-9--9--11-9--9--11-9--9--11-9--9--11--|--9--9--11-9--9--11-9--9--11-9--9--11-*|
5|--7--7--7--7--7--7--7--7--7--7--7--7---|--7--7--7--7--7--7--7--7--7--7--7--7---|
6|---------------------------------------|---------------------------------------|

Lead Guitar                                                                       Drum Fill
1|---------------------------------------|---------------------------------------|----------|
2|--9--9--10p9---10p9--7--7--------------|--9--9--10p9---10p9-9--9--10p9--10p9---|----------|
3|*-9--9--9------9-----7--7--------------|--9--9--9------9----9--9--9-----9------|---Free--*|
4|*-9--9--9------9-----7--7--------------|--9--9--9------9----9--9--9-----9------|---Time--*|
5|--7------------------5--5--------------|--7-----------------7------------------|----------|
6|--0-------------------------5---4---3--|--0------------------------------------|----------|


Rythmn Guitar           *Let Ring
1|-------------------------------|
2|--12--12--7--7--5--5--2--------|
3|--12--12--7--7--5--5--2--------|
4|--12--12--7--7--5--5--2--------|
5|--10--10--5--5--3--3--0--------|
6|-------------------------------|

Lead
1|-------------------------------|
2|--12--12--7--7--5--5-----------|
3|--12--12--7--7--5--5-----------|
4|--12--12--7--7--5--5-----------|
5|--10--10--5--5--3--3-----------|
6|----------------------5-4-3-0--|


There are some slight variations within the song that i haven't tabbed with in the song
but above is the pretty much It. There is a bass fill just before the solo which is

Bass
1|-------------------|-------------------|
2|-------------------|-------------------|
3|--7-7-7-7-7-7-7-7--|-------------------|
4|-------------------|--0-0-0-0-0-0-0-0--|

I'm not sure about the bass for the rest of the song but it would probably look like this

1|--------------------------|---------------------------|
2|--------------------------|---------------------------|
3|--2--4--2--4--2--4--2--4--|--10--10--5--5--3--3-------|
4|--------------------------|----------------------5--0-|

Solo
Usual Rythmn Guitar

First part of solo
Lead
1|-----------------------|
2|---7-----7-------------|
3|*--9b11--9b11------7--*|
4|*--------------/9-----*|
5|-----------------------|
6|-----------------------|
            
Hard to play? Try these video lessons and learn fast. | Correct




comments powered by Disqus
↑ Back to top | Tablatures and chords are parodies/interpretations of the original songs. You may use it for private study, scholarship, research or language learning purposes only