» » »

Queen, Under Pressure Bass tabs (ver.4)

Artists:  A B C D E F G H I J K L M N O P Q R S T U V W X Y Z # 

Under Pressure Bass tabs (ver.4)

Queen Tabs
 Rating:
4/5 (4 votes)
Under Pressure lessons Tabs too difficult? Try these video lessons and learn fast
                Tune:EADG

It took so long to tab this song of the "Gods"...
QUEEN!!!!!!!I can really tell...but...
I think it's right...try yourself!!!
rate please!!
                            ENJOY!!!
                         STAY SICK!!!!


              intro

G|-----------------------|
D|--12-12-12-121212------|
A|------------------12X--|
E|-----------------------|    X14

          pre-verse:(0:30)

G|-----------------------|
D|--12-12-12-121212------|
A|------------------12X--|
E|-----------------------|    X3

G|-----------------------|
D|--12-12-12-121212------|
A|------------------12\--|
E|-----------------------|

---------------------------------------------

G|------------------------------|
D|------------------------------|
A|--5-5-5-555-0X--4-4-4-444-0X--|
E|------------------------------|

G|----------------------------------|
D|----------------------------------|
A|--2-2-2-222-0X--0-0-0-0-2X0X2X0X--|
E|----------------------------------|

                     X2

           verse:(0:55.5)

G|-----------------------------------|
D|------------------5-5-5-5-5-5-5-5--|
A|-----------------------------------|
E|--3-3-3-3-3-3-3-3------------------|    X3

G|-------------------|
D|-------------------|
A|-------------------|
E|--2-----3---5---X--|

---------------------------------------------

G|-----------------------|
D|--12-12-12-121212------|
A|------------------12X--|
E|-----------------------|    X4

        pre-verse:(1:21)

G|-----------------------|
D|--12-12-12-121212------|
A|------------------12X--|
E|-----------------------|    X3

G|-----------------------------|
D|--12-12-12-121212-12-12------|
A|------------------------12\--|
E|-----------------------------|

---------------------------------------------

G|------------------------------|
D|------------------------------|
A|--5-5-5-555-0X--4-4-4-444-0X--|
E|------------------------------|

G|----------------------------------|
D|----------------------------------|
A|--2-2-2-222-0X--0-0-0-0-2X0X2X0X--|
E|----------------------------------|

G|------------------------------|
D|------------------------------|
A|--5-5-5-555-0X--4-4-4-444-0X--|
E|------------------------------|

G|----------------------------------|
D|------------4X--------------------|
A|--2-2-2-222-----0-0-0-0-2X0X2X0X--|
E|----------------------------------|


              verse:(1:46.5)

G|-----------------------------------|
D|------------------5-5-5-5-5-5-5-5--|
A|-----------------------------------|
E|--3-3-3-3-3-3-3-3------------------|    X3

G|--------------------|
D|--------------------|
A|--------------------|    pause
E|--2-----3---5_------|

---------------------------------------------

              bridge:(2:14.5)
              with david bowie

G|--12----\--|-------|
D|-----------|-------|
A|-----------|-------|
E|-----------|--12\--|

G|------------------|
D|------------------|
A|------------------|
E|--5--5-5-5-5-5-3--|

--------------------------------------------

G|---------|---------|
D|---------|---------|
A|---------|---------|
E|--1_-----|--3_-----|

                X2

G|--------------|
D|--------------|
A|--------------|
E|--5_----------|

             (2:33)

G|-----------------------------------|
D|-----------------------------------|
A|------------------------------7----|
E|--5-5-5-5-5-5-5-5-5-5-5-5-5-5------|

---------------------------------------------

             chorus:(2:38)

G|--------------------------------|
D|--------------------------------|
A|--5-5-5-5-5-5-5-5X--------------|
E|------------------3-3-3-5X-3----|     X3

G|-----------------------------------|
D|-----------------------------------|
A|--5-5-5-5-5-5-5-5-4-4-4-4-4-4-4-4--|
E|-----------------------------------|

G|------------------------------------|
D|------------------------------------|
A|--2-2-2-2-2-2-2-2-0-0-0-0-2X0X2X0X--|
E|------------------------------------|

G|------------------------2--4-2---|
D|------------------------------2--|
A|--5-5-5-5-5-5-5-5-4-4-4----------|
E|---------------------------------|

G|------------------------------------|
D|------------------------------------|
A|--2-2-2-2-2-2X----0-0-0-0-2X0X2X0X--|
E|------------------------------------|

G|-----------------------------------|
D|-----------------------------------|
A|--5-5-5-5-5-5-5-5-4-4-4-4-4-4-4-4--|
E|-----------------------------------|

G|------------------------------------|
D|------------------------------------|
A|--2-2-2-2-2-2-2-2X0-0-0-0-2X0X2X0X--|
E|------------------------------------|

---------------------------------------------

G|-----------------------------------|
D|------------------5-5-5-5-5-5-5-5--|
A|-----------------------------------|
E|--3-3-3-3-3-3-3-3------------------|    X2

G|-------------------|
D|-------------------|
A|-------------------|
E|--2-----3---5---X--|

              outro:(3:28)

G|-----------------------|
D|--12-12-12-121212------|
A|------------------12X--|
E|-----------------------|    X6

                        END
            
Submit corrections

comments powered by Disqus
↑ Back to top | Queen Bass for Under Pressure. Lyrics for acoustic guitar and electric guitar. Tablatures and chords are parodies/interpretations of the original songs. You may use it for private study, scholarship, research or language learning purposes only