» » »

Queen, Too Much Love Will Kill You Bass tabs (ver.1)

Artists:  A B C D E F G H I J K L M N O P Q R S T U V W X Y Z # 

Too Much Love Will Kill You Bass tabs (ver.1)

Queen Tabs
Rating:
0/5 (0 votes)
Too Much Love Will Kill You lessons Tabs too difficult? Try these video lessons and learn fast
                QUEEN-TOO MUCH LOVE WILL KILL YOU



Im just the pieces of the man I used to be
-------------------------------------------|
-------------------------------------------|
--------------------------3----------------|
------------3----------------------------3-|
Too many bitter tears are raining down on me
-------------------------------------------|
---------2---------------------------------|
--------------------------5---------------3|
-------------------------------------------|
Im far away from home
-------------------------------------------|
-----------------2-------------------------|
-------------------------------------------|
---5---------------------------------------|
And Ive been facing this alone
-------------------------------------------|
---------------------------2---------------|
-------------------------------------------|
--------------5----------------------------|
For much too long
-------------------------------------------|
-------------------------------------------|
-------------------------------------------|
----------------5--/--8--/--12--/--15------|







Too much love will kill you
-------------------------------------------|
-------------------------------------------|
------------------------3------------------|
3------------------------------------------|                        
If you cant make up your mind
-------------------------------------------|
2-----------------------5------------------|
-------------------------------------------|
-------------------------------------------|
Torn between the lover
-------------------------------------------|
----------------3--------------------------|
-------------------------------------------|
3------------------------------------------|                          
And the love you leave behind
-------------------------------------------|
2---------------------5--------------------|
-------------------------------------------|
-------------------------------------------|     		    
Youre headed for disaster
-------------------------------------------|
-------------------------------------------|
-----------------3-------------------------|
3------------------------------------------|                     
cos you never read the signs
-----------------------2-------------------|
2------------------------------------------|
-------------------------------------------|
-------------------------------------------|                    
Too much love will kill you
-------------------------------------------|
-------------------------------------------|
------------------------3------------------|
5------------------------------------------|
Every time
-------------------------------------------|
-------------------------------------------|
-------------------------------------------|
5------------------------------------------|
            
Submit corrections

comments powered by Disqus
↑ Back to top | Queen Bass for Too Much Love Will Kill You. Lyrics for acoustic guitar and electric guitar. Tablatures and chords are parodies/interpretations of the original songs. You may use it for private study, scholarship, research or language learning purposes only