» » »

Queen, Miracle Bass tabs (ver.1)

Artists:  A B C D E F G H I J K L M N O P Q R S T U V W X Y Z # 

Miracle Bass tabs (ver.1)

Queen Tabs
 Rating:
4/5 (4 votes)
Miracle lessons Tabs too difficult? Try these video lessons and learn fast
1
                ++++++++++++++++++++++
| Queen- The Miracle |
++++++++++++++++++++++


"Peace on earth, and end to war..."

Tuning: EADG


Intro
1.
G|-------------------------|
D|-10~---------10h12p10~---|
A|-------10-12-------------|
E|-------------------------|

Verse
"Every drop of rain that falls..."
2.
G|--------------------------------------------------------------------------|
D|---10x---10-8--------------------13x---13--10-13-10x---10-10h12~-10-10h12-|
A|--------------11x----11-13~-----------------------------------------------|
E|-8------------------------------------------------------------------------|

3.
G|----------------------------|
D|----------------------------|
A|-1010x--1088x--866x--65~----|
E|----------------------------|

Pre-Chorus
"Test tube babies being born..."
4.
G|-------------------------------------------------|
D|---------------------------------------------3---|
A|-4-4-4-4-4-4-4-4-2-2-2-2-2-2-2-2-1-1-1-1-1-1---5-|
E|-------------------------------------------------|

Chorus
"We're having a miracle on earth..."
5.
G|---------------------------------------------------------|
D|-----8--------66--------------------8------6---------1h4-|
A|-6~----6-4~--------------6h8-8-6~-----4~-----2~----------|
E|-----------------4~--------------------------------------|

"The wonders of this world go on..."
6.
G|-------------------------------------3-6-3---3-6-3---5-8-5---8-5---|
D|-----------------------------------------------------------6-----6-|
A|-------------------------------------------------------------------|
E|-2-2-2-2-2-2-2-222-2-2-2-2-2-2-222-2-------2------22---------------|

"Its a miracle..."
7.
G|----------------------------------------------------------------|
D|-----------------------------------------13~--------------------|
A|-------------------------------------13~------------------------|
E|-4-4-4-4-6-6-6-6-4-4-4-4-6-6-6-6/11~----------------11~-------/-|

Outro      1:00
"Its a miracle..."
8.
G|--------------------------------------|
D|-------------6---6~-------6-6-6-------|
A|---------6h8---8------6-8-------8-6-3-|
E|-4~-----------------------------------|

Bridge
"The one thing we're all waiting for..."
9.
G|--------------------------------------------------------------------------------------|
D|--------------------------------------------------------------------------------------|
A|-4~-----4~---4-4~---4-4~---6-4-3~---3-3~-----------------4~---1~---34-6~---34-6~---46-|
E|------4-------------------------------------2~---2-2~---------------------------------|

10.
G|--------------------------------------------------------------------------------|
D|-------------------------------------------------------4-4--6~------------------|
A|-7~---8~---/-------------------------4-4-4-4------------6-6---------------------|
E|-------------2-2-2-2-4-4-4-4-6-6-6-6---------4~-----------------------4~--------|

1:37
11.
G|--------------------------------------------|
D|---------4~---------------------------------|
A|-4~--6~-----3-3-3-3-3-3-3--1-3-565-313----1-|
E|--------------------------3--------------3--|

Verse
"If every leaf on every tree..."
12.
G|----------------------------------------------------------------------------------------------|
D|------10--10----8h10---------------------------------------13--10-13-10x--10-10h12~-10--10h12-|
A|---------------------11x----11-11x----11-13~--------------------------------------------------|
E|----------------------------------------------------11~---------------------------------------|

13.
G|----------------------------|
D|----------------------------|
A|-1010x--1088x--866x--65~----|
E|----------------------------|

Pre-Chorus
"If all God's people could be free..."
14.
G|-------------------------------------------------|
D|---------------------------------------------3---|
A|-4-4-4-4-4-4-4-4-2-2-2-2-2-2-2-2-1-1-1-1-1-1---5-|
E|-------------------------------------------------|

Chorus
"We're having a miracle on earth..."
15.
G|---------------------------------------------------------|
D|-----8--------66--------------------8------6---------1h4-|
A|-6~----6-4~--------------6h8-8-6~-----4~-----2~----------|
E|-----------------4~--------------------------------------|

"Open hearts and surgery..."
16.
G|-------------------------------------3-6-3---3-6-3---5-8-5---8-5---|
D|-----------------------------------------------------------6-----6-|
A|-------------------------------------------------------------------|
E|-2-2-2-2-2-2-2-222-2-2-2-2-2-2-222-2-------2------22---------------|

"Its a miracle..."
17.
G|---------------------------------------------------------|
D|---------------------------------------------------------|
A|---------------------------------------------------------|
E|-4-4-4-4-6-6-6-6h8-4-4-4-4-6-6-6h8/11/-4-4-4-4-6-6-6-6/8-|

Solo
18.
G|--------8~--6~---6h8--------------8------------------------|
D|-----8~--------------6~------8h10---10---------------------|
A|--6~-----------------------------------6~---4~---2~--------|
E|-----------------------------------------------------------|

"Wonders of this world go on..."
19.
G|-----------------------------------------------------------8-5---|
D|---------------------------------------------------------------6-|
A|-----------------------------------------------------------------|
E|-2-2-2-2-2-2-2-222-2-2-2-2-2-2-222-2-2-2-2-2-2-222-2-2-2-2-------|

"Its a miracle..."
20.
G|---------------------------------------------------------------------|
D|---------------------------------------------13~-------------------/-|
A|-----------------------------------------13~-------------------------|
E|-4-4-4-4-6-6-6-6h8-4-4-4-4-6-6-6-6h8/11~-----------------------------|

Outro
"Its a miracle..."
21.
G|--------------------------------|
D|-------------6---6~-----------/-|
A|---------6h8---8----------------|
E|-4~-----------------------------|

Bridge
"The one thing we're all waiting for..."
22.
G|--------------------------------------------------------------------------------------|
D|--------------------------------------------------------------------------------------|
A|-4~---4-4~---4-4~---4-4~---6-4-3~---3-3~-----------------4~-4-1~---34-6~---34-6~---46-|
E|--------------------------------------------2~---2-2~---------------------------------|

23.
G|--------------------------------------------------------------13~/------------------|
D|--------------------------------------------------------13h15-----------------------|
A|-7~---8~---/-------------------------4-4-4-4-11~------------------------------------|
E|-------------2-2-2-2-4-4-4-4-6-6-6-6--------------------------------------4~--------|

3:48
Bass Solo
24.
G|-----------------------------------------------------------------|
D|-----------------------------------------------------------------|
A|-4-4-----4-4-----4-4-----4-4-----4-4-----4-4-----4-4-----4-4-----|--x2
E|-----464-----464-----464-----464-----464-----464-----464-----464-|

Outro
"That time will come..."
25.
G|-6~---6-6~----6~---6-6~----5~---5-5~-----------------|
D|----------------------------------------4~---4-4~----|
A|-----------------------------------------------------|
E|-----------------------------------------------------|

26.
G|---------------------------------------------------------------------|
D|---------------------------------------------------------------------|
A|-4-4-4-4-4-4-4-4-4-4-4-4-4-4-4-4-4-3-3-3-3-3-3-3-3-3-----------------|
E|-----------------------------------------------------2-2-2-2-2-2-2-2-|


Please rate thanks!!


Lyrics:

Every drop of rain that falls in 
Sahara Desert says it all
It's a miracle
All God's creations great and small
The Golden Gate and the Taj Mahal
That's a miracle

Test tube babies being born
Mothers,fathers dead and gone
It's a miracle

We're having a miracle on earth
Mother nature does it all for us
The wonders of this world go on
The hanging Gardens of Babylon
Captain Cook and Cain and Abel
Jimi Hendrix to the Tower of Babel
It's a miracle 

The one thing we're all waiting for is peace on earth an end 
to war
It's a miracle we need 
The miracle we're all waiting for today

If every leaf on every tree 
could tell a story 
that would be a miracle
If every child on every street 
had clothes to wear 
and food to eat
That's a miracle

If all God's people could be free to live in perfect harmony
It's a miracle

Open hearts and surgery
(wonders of this world go on)
Sunday mornings with a cup of tea
Super powers always fighting
But Mona Lisa just keeps on smiling
It's a miracle 

That time will come 
one day you'll see 
when we can all be friends



+++++++++++
| Raileff |
+++++++++++
            
Submit corrections

comments powered by Disqus
↑ Back to top | Queen Bass for Miracle. Lyrics for acoustic guitar and electric guitar. 1 Tablatures and chords are parodies/interpretations of the original songs. You may use it for private study, scholarship, research or language learning purposes only