» » »

Queen, The Loser In The End Bass tabs (ver.1)

Artists:  A B C D E F G H I J K L M N O P Q R S T U V W X Y Z # 

The Loser In The End Bass tabs (ver.1)

Queen Tabs
 Rating:
4/5 (4 votes)
The Loser In The End lessons Tabs too difficult? Try these video lessons and learn fast
1
                Words and music by Roger Taylor

Verse
  *   .   *   .   *   .   *   .   *   .   *   .   *   .   *   .
|-----------------------------------------------------------------|
|------------------------------5-------------------------------5--|
|-----------------3---------357-75---------3------3---------357-75|
|-5---5---35--5----5--5----5------5---5---5---5----5--5--3-5------|


  *   .   *   .   *   .   *   .   *   .   *   .   *   .   *   .
|-----------------------------------------------------------------|
|------------------------------5---------------------------4--454-|
|---------------------------357-755---5---35--5---355-5--55--5---5|
|-5---5--535--5---35--5----5--------------------------------------|

  *   .   *   .   *   .   *   .   *   .   *   .   *   .   *   .
|-----------------------------------------------------------------|
|-----7------------------------5----------------------------------|
|-----------------3---------357-75--------------------------------|
|-5-5----535--5----5--5----5------333-3--313-13---13--3---33-33333|


                                 2nd Verse
  *   .   *   .   *   .   *   .   *   .   *   .   *   .   *
|-----------------------------------------------------------------|
|------------------------------5-------------------------------5--|
|-----------------3---------357-75----------------3---------357-75|
|-5---5-5535--5----5--5----5------5---5--535--5--5-5--5--3-5------|

  *   .   *   .   *   .   *   .   *   .   *   .   *   .   *   .
|-----------------------------------------------------------------|
|------------------------------5-------------------------------5--|
|-----------------3---------357-75----------------3---------357-75|
|-5---5--535--5----5--5-35-5------5---5--535--5----5--5--355------|

  *   .   *   .   *   .   *   .   *   .   *   .   *   .   *   . |-----------------------------------------------------------------|
|--------------------------4445-6-----7--757--75---------------5--|
|-5-5-5--355-55---5-5-5-555---------------------75-----------57-75|
|--------------235----------------5---------------5-5-5--535------|

  *   .   *   .   *   .   *   .   *   .   *   .   *   .   *   .
|-----------------------------------------------------------------|
|--------------------------------------------------------------5--|
|-------------------------------------------------3---------357-75|
|-3-3-3---13-131313-3-3-3-111333335---5--535--5----5--5----5------|


  *   .   *   .    
|-----------------|------|------|------|
|-----757-757575--|--0/--|--0/--|--0/--|
|-----------------|--/0--|--/0--|--/0--|
|-535-------------|------|------|------|


Bridge:
  *   .   *   .   *   .   *   .   *   .   *   .   *   .   *   .
|-----------------------------------------------------------------|
|-----------------------------------------------------------------|
|-5------5---2--3-5---5-55--------555-5-----------3-3-3-3---------|
|---------3---------------33-3-3-3--------33-33--3--------5---5-55|

  *   .   *   .   *   .   *   .   *    .
|------------------------------------------|
|------------------------------------------|
|-5---5-----------3---3---5----------------|
|---------3------0-------------------------|

Verse (short)
  *   .   *   .   *   .   *   .   *   .   *   .   *   .   *   .
|-----------------------------------------------------------------|
|------------------------------5--------------4-4-----4--4---4-5-6|
|-----------------3---------35--755---5--35--5-5--5-5-----55------|
|-5---5---35--5----5--5--3-5--------------------------------------|

  *   .   *   .   *   .   *   .   *   .   *   .   *   .   *   .
|-----------------------------------------------------------------|
|-7---7\-----------------------5----------------------------------|
|-----------------3---------35--75--------------------------------|
|---------35--5----5--5--3-5------133-3--313-13---133-3--313-13131|

                                  solo
  *   .   *   .   *   .   *   .   *   .   *   .   *   .   *   .
|-----------------------------------------------------------------|
|------------------------------5----------------------------------|
|-----------------3----------57-7---------------7\----------------|
|-5---5---35--5----5--5----5------555-5-----------333-3---------13|


  *   .   *   .    *   .   *   .
|----------------------------------|
|----------------------------------|
|---------------7\-----------------|
|-555-5------------33333-----------|


(I change here to a less compressed mode)

  *       .       *       .     *       .     *       .
|--------------h14-h14-h14-1414------------/12121212121212----|
|---------------------------------------------------------1412|
|-------------------------------------------------------------|
|-5-5-5---5---------------------3-3-3---3---------------------|

  *       .       *       .      *       .       *       .
|------------------------------------------------------4---5-----|
|---------------7---7---7--7-5----------------------5--------(3)-|
|------------------------------7---------------------------------|
|-5---5---5----------------------3-3-3---3-----------------------|                                                                               
  *       .       *      .        *       .       *       .
|--------------h14-14141412h141414--------------------------------|
|-5-5-5-----------------------------------------------------------|
|-----------------------------------------------------------------|
|---------------------------------3-3-3---3-----3---3---3---3-3---|


  *       .       *       .       *       .       *       .
|------------------h14141414\-------------------------------------|
|-----------------------------------------------5---5---5---5-----|
|-----------------------------------------------------------------|
|-5-5-5---5-----------------------3-3-3---3-----------------------|


  *       .       *       .       *       .       *       .
|-----------------------------------------------------------------|
|-----7---7---------5---------------------------------------------|
|-----------------------7---5-3---------------------1-------------|
|-5-5---------------------------5-3-3-3---3-------------3---0-3---|

  *       .       *       .       *       .       *
|-----------------------------------------------------------------|
|-----------------------------------------------------------------|
|-----------------------------------------------------------------|
|-5---5---5---------5-----5---5---3--(2)--3-------3---3---3---3---|

...
            
Submit corrections

comments powered by Disqus
↑ Back to top | Queen Bass for The Loser In The End. Lyrics for acoustic guitar and electric guitar. 1 Tablatures and chords are parodies/interpretations of the original songs. You may use it for private study, scholarship, research or language learning purposes only