>
 >
The Band Who Were Mint

The Band Who Were Mint Guitar Tabs

Queen - The Band Who Were Mint chords, tabs, tablatures, lyrics

Guitar lessons | Add/correct | Request | Top 50 tabs Artists:  A B C D E F G H I J K L M N O P Q R S T U V W X Y Z 0-9

The Band Who Were Mint Guitar Tabs – Queen

CD, Sheet music, Poster

Do you like The Band Who Were Mint? Share with your friends now
Tabs
e----------------------------------------------
b----------------------------------------------
g--7----5----5----7------7----5----5----7------
d--8----7----5----8------8----7----5----7------
a--5----8----------------5----8----------------
D----------------------------------------------

guitar enters with volume swell
e------------------
b------------------
g------------------
d------------------
a-0----------------
D-0----------------

palm muted
e--------------------------------------
b--------------------------------------
g---------3---2---------3---2---5------
d---0h3h5---0---0-0h3h5---0---0---0----
a--------------------------------------
D--------------------------------------


let ring
e-------------------------------
b-----3-------------------------
g-(5)-2-------------------------
d-----0-------------------------
a-------------------------------
D--0----------------------------

e-------------------------------
b------------------8------10-----
g---7-----------------7-------7---
d------0-------------------------
a--------------------------------
D---------0-0--------------------

palm mute
e-----------------------------------------
b-----------------------------------------
g-----------------------------------------
d-----------10---9-----------10---9---12--
a-0-0h10h12----0---0-0h10h12----0---0-----
D-----------------------------------------

not palm muted
e-------------------------------------------
b-------------------------------------------
g-------------------------------------------
d-----------10---9-------------10---9---12--
a-0-0h10h12----0---0-0-0h10h12----0---0-----
D-------------------------------------------

palm mute
e----------------------------------------
b----------------------------------------
g---------5---4-----------5---4---7------
d-0-0h5h7---0---0---0h5h7---0---0--------
a----------------------------------------
D----------------------------------------

not palm muted
e-------------------------------------------
b-------------------------------------------
g-------------------------------------------
d-----------10---9-------------10---9---12--
a-0-0h10h12----0---0-0-0h10h12----0---0-----
D-------------------------------------------
                           
e-------------------------------------------
b-------------------------------------------
g-------------------------------------------
d-----------10---9-------------10---9--*12\-
a-0-0h10h12----0---0-0-0h10h12----0---0-----
D-------------------------------------------                           
*=pinch harmonic
                         
e----------------------------------------
b----------------------------------------
g----------------------------------------
d-0-xx-3-xx-(3)h5--3-x-3-55--------------
a-0-xx-3-xx-(3)h5--3-x-3-55-------3------
D-0-xx-3-xx-(3)h5--3-x-3-55-0h3h5--------

let ring
e-------------
b--12---------
g--12---------
d--12---------
a-------------
D-------------

palm mute
e------------------------------------------
b------------------------------------------
g------------------------------------------
d-----------10---9------------10---9---12--
a-0-0h10h12----0---0--0h10h12----0---0-----
D------------------------------------------


every other time (still palm mute)
e------------------------------------------
b------------------------------------------
g------------------------------------------
d-----------9---7------------9---7---10----
a-0-0h10h12---0---0--0h10h12---0---0-------
D------------------------------------------


not palm muted
e-------------------------------------------
b-------------------------------------------
g-------------------------------------------
d-----------10---9-------------10---9---12--
a-0-0h10h12----0---0-0-0h10h12----0---0-----
D-------------------------------------------

repeat
e------------------------
b------------------------
g------------------------
d---------10---9---12----
a-0h10h12----0---0----0--
D------------------------

with delay (palm mute the open A)
e----------------------------------------------------------------
b----------------------------------------------------------------
g----------------------------------------------------------------
d-14-----17-----14-----19-----12-----14-----10----12---10---12---
a----0-0----0-0----0-0----0-0----0-0----0-0---0-0----0----0----0-
D----------------------------------------------------------------

occasionally
e----------------------------------------------------------------
b----------------------------------------------------------------
g----------------------------------------------------------------
d-14-----17-----14-----19-----12-----12h14----10-----12---10---12-
a----0-0----0-0----0-0----0-0----0-0-------0-----0-0----0----0----0-
D----------------------------------------------------------------


e----------------------------------------
b----------------------------------------
g----------------------------------------
d-14------17-----14-----17-----14---14---  x2
a----0-0-----0-0----0-0----0-0----0----0-
D----------------------------------------
fill
e------------------
b------------------
g------------------
d---------10---9---
a-0h10h12----0---0-
D------------------

e----------------------------------------
b----------------------------------------
g----------------------------------------
d-14------17-----14-----17-----14---14---  x2
a----0-0-----0-0----0-0----0-0----0----0-
D----------------------------------------

e----------------------------
b----------------------------
g----------------------------
d---10----5------12\---2-----
a-8-----3-----10-------0-0-0-
D----------------------------

e----------------------------------------
b----------------------------------------
g----------------------------------------
d-14------17-----14-----17-----14---14---  
a----0-0-----0-0----0-0----0-0----0----0-
D----------------------------------------

e----------------------------
b----------------------------
g----------------------------
d---10----5------12\---2-----
a-8-----3-----10-------0-0-0-
D----------------------------

e----------------------------------------
b----------------------------------------
g----------------------------------------
d-14------17-----14-----17-----14---14---  
a----0-0-----0-0----0-0----0-0----0----0-
D----------------------------------------

e--------------------------------------
b--------------------------------------
g--------------------------------------
d---10-------5-----12\-----------0-----
a-8-----0--3----10---------------------
D----------------------0---0---------0-

e----------------------
b----------------------
g-7--7--8--7--7--8--7--
d-7--7--8--7--7--8--7--
a-5--5--6--5--5--6--5--
D----------------------

e------------------------------
b------------------------------
g------------------------------
d-10--8-10\-5-3-5/-10-10-12-0--
a--8--8--8\-3-3-3/-10-10-12-0--
D--8--8--8\-3-3-3/-10-10-12-0--

e---|---------------------------
b---|---------------------------
g---|---------------------------
d-0-|------0--------------------
a-0-|-5--0-------0-----3/10-----
D-0-|--------0-5---0-3--/10-0-0-

last time (start palm muting at the 3)
e--------------------------------------------------
b--------------------------------------------------
g--------------------------------------------------
d-0-------0----------------------------------------
a-0--5--0-------0---3--0--2--0--0--3--0--2--0--5--- 
D-0---------0-5---0-3--0--2--0--0--3--0--2--0--5---

palm mute
e--------------------------------------
b--------------------------------------
g--------------------------------------
d--------------------------------------
a-0--0--3--0--2--0--0--3--0--2--0--5---
D-0--0--3--0--2--0--0--3--0--2--0--5---

only palm mute the 0
e------|------------------------------
b------|-6----5------6----5----8------
g------|-5----4------5----4----7------
d------|-3----2------3----2----5------
a-0000-|-3-00-2-0000-3-00-2-00-5-0000-
D-0000-|-3-00-2-0000-3-00-2-00-5-0000-

e------------------------------
b------------------------------
g------------------------------
d------------------------------
a---------5---------6-------3--
D-0-0h3h5---0-0h3h5---0h3h5----





Comments


Popular Queen tabs & chords
Crazy Little Thing Called Love 8 Bass Tabs
My Baby Does Me 3 Bass Tabs
Show Must Go On Bass Tabs
We Will Rock You Bass Tabs
Love Of My Life 2 Chords
Man On The Prowl Chords
The Night Comes Down Chords
Bohemian Rhapsody 1 Tabs
Fun It 1 Tabs
These Are The Days Of Our Lives Ukulele


Song lyrics



↑ Back to top | Tablatures and chords are parodies/interpretations of the original songs. You may use it for private study, scholarship, research or language learning purposes only
© 2014 AZChords.com Contact us | Privacy policy | DMCA | Add/correct tabs | Request tabs | Top 50 tabs