>
 >
Sweet Lady

Sweet Lady Guitar Tabs

Queen - Sweet Lady chords, tabs, tablatures, lyrics

Guitar lessons | Add/correct | Request | Top 50 tabs Artists:  A B C D E F G H I J K L M N O P Q R S T U V W X Y Z 0-9

Sweet Lady Guitar Tabs – Queen

CD, Sheet music, Poster

Do you like Sweet Lady? Share with your friends now
Tabs
Queen: Sweet Lady

two gtrs arr.(m&r) arr for one        >enters left guitar
|-------------------------------------------------------------------------------------------------|
|---9---109---7-7---8-7-\-2-2---3---2----------------9---109-----7---8-7-\---2---3---2------------|
|---9---9-9---7-7---7-7-\-2-2---2---2----------------9---9-9-----7---7-7-\-2-2---2---2------------|
|-9-9---9-9---7-7---7-7-\-2-2---2---2---2------------9---9-9---7-7---7-7-\-2-2---2---2------------|
|-7-7---7-7---5-5---5-5-\-0-0---0---0--------------7-7---7-7---5-5---5-5-\-0-0---0---0------------|
|-------------------------------------0---3b---0---0-----------------------------------0-4-5---6--|

    >right gtr rings throughout                                                        left:A   A
|--------------------------------------------------------------------------------------------------|
|---9---109-\-7-7---8-7-\---2---3---2---------9-\-----9---109-----7---8-7-\-2-2---3---2-----0---0--|
|---9---9-9-\-7-7---7-7-\---2---2---2-----9---9-\-----9---9-9-----7---7-7-\-2-2---2---2-----2---1--|
|---9---9-9-\-7-7---7-7-\-2-2---2---2-----9---9-\-----9---9-9---7-7---7-7-\-2-2---2---2-----2---2--|
|---7---7-7-\-5-5---5-5-\-0-0---0---0-----7---7-\---0-7---7-7---5-5---5-5-\-0-0---0---0-----0---2--|
|-7-----------------------------------0-0-----------0-------------------------------------0-----0--|

'you call...'
|-----------------------------------------------------------------------------------------------|
|---9---109-----2---3-2---------2-------------------------------2---3-2---3---2---------9---9-\-|
|---9---9-9-----2---2-2---------2-------------------9---9-9-----2---2-2---2---2---------9---9-\-|
|---9---9-9---2-2---2-2-----4---2-------------2-----9---119-----2---2-2---2---2---------9---9-\-|
|---7---7-7---0-0---0-0-----2---0---*-------2-------7---7-7---0-0---0-0---0---0---*-----7---7-\-|
|-0-----------------------0-------------0-4-------0----------------------------------x0---------|

|---------------------------------------------------------------------------------------------|
|---2---3-2-----4---2-------------------------------------------------------------------------|
|---2---2-2-----4---2-------------------------8-----8------------------9--\-------------------|
|---2---2-2-----4---2-------------2-x---------9-----9-----9-----11-----11-\-7-----------------|
|---0---0-0-----2---0---*-------2---x---9---119---9-9---119---1111---1111-\-7------7---9p7----|
|-0-----------0---0---------0-4-------0-7---7-7---7-7---7-7---9-9------9--\-5---8h9--------9--|

                                                                                  right:A   A
|-------------------------------------------------------------------------------------------------|
|-9---109-----7---8-7-\-2-2---3---2-----9---9-----9---109---7-7---8-7-----2---3---2-----0---0-----|
|-9---9-9-----7---7-7-\-2-2---2---2-----9---9-----9---9-9---7-7---7-7-----2---2---2-----2---2-----|
|-9---9-9-----7---7-7-\-2-2---2---2-----9---9-----9---9-9---7-7---7-7-----2---2---2-----2---2-----|
|-7---7-7---5-5---5-5-\-0-0---0---0-----7---7-----7---7-7---5-5---5-5---0-0---0---0-----0---0--/7-|
|-------------------------------------0---------0-----------------------0-------------0-----0-----|

1'00": RIFF A
|---------------------------|----|-------------------------------------------|
|---------------------------|----|-------------------------------------------|
|---------------------------|-0/-|-----------------------------9-------------|
|---------5b---75-7-5--5b---|-/0-|-54-5-42-------54-5-42-------9-------------|
|-75-7-5-----7-------7----7-|----|---------5b7-3---------3b5-0-7-------------|
|-------7-------------------| 2X |-----------------------------0-----0\\\trem|
|multitrack backing gtrs arr for one:
|-1919-19----1717-17--16--17--18--|----|-1919-19----1717-17----2020-20----2121-21----19----|
|-2121-21----2020-20--21--22--21--|----|-2121-21----2020-20----2222-22----2222-22----21----|
|-1919-19----1818-18--20--21--18--|-0/-|-1919-19----1818-18----2121-21----2121-21----21----|
|-1818-18----1717-17--17--17--17--|-/0-|-1818-18----1717-17----1919-19----1919-19----21----|
|---------------------------------|----|---------------------------------------------------|
|---------------------------------|----|---------------------------------------------------|

|-----------------------------------------------------------------------------------------------|
|-------------2---3-2---------2-------------------------------2---3-2-----4---2---------10--9-\-|
|-9-----9-----2---2-2---------2-------------------9---9-9-----2---2-2-----4---2---------9---9-\-|
|-9---9-9---2-2---2-2-----4-\-2-------------2-----9---119-----2---2-2---4-4---2---------9---9-\-|
|-7-----7---0-0---0-0-----2-\-0---*-------2-------7---7-7---0-0---0-0---2-2---0---*-----7---7-\-|
|-----------------------0-------------0-4-------0-------------------------------------0---------|

|------------------------------------------------------------------------------------------|
|---2---2-2------4-\-2------------------------------------4-----------5-\--2---------------|
|---2---2-2------4-\-2---------9---9-\--4-----4-----4---6-4-----6---6-6-\--2-----2--6r4p2--|
|---2---2-2------4-\-2---------9---9-\--4---6-4---4-4---6-4---6-6---6-6-\--2-----2---------|
|-0-0---0-0---0h-2-\-0---*-----7---7-\--2---2-2---2-2-----2---4-4---4-4-\--0---34----------|
|-0-----------0--------------0-------------------------------------------------------------|

|----------------------------------------------|
|-0---2-0-----7---8-7-----2---3---2-----2---2--|
|-1---2-1-----7---7-7---2-2---2---2-----2---2--|
|-2---2-2---7-7---7-7---2-2---2---2-----2---2--|
|-2---2-2---5-5---5-5---0-0---0---0---*-0---0--|
|-0---0-0--------------------------------------|

RIFF A \

1'57"
|---------------------------------------------------------------------------------------|
|-9---109---7-7---7-7-----2---3---------------------9---109-----7---8-7-----2---3---2---|
|-9---9-9---7-7---7-7---2-2---2---------------------9---9-9---7-7---7-7-----2---2---2---|
|-9---9-9---7-7---7-7---2-2---2--------2------------9---9-9---7-7---7-7---2-2---2---2---|
|-7---7-7---5-5---5-5---0-0---0---2b--------------7-7---7-7---5-5---5-5---0-0---0---0---|
|------------------------------------4---3b---0---0-------------------------------------|

|--------------------------------------------------------------------------------------|
|------------------------------------------------9---109-----9---9---------------4-4-5-|
|---9---8-----8---/----11----6------9-----9------9---9-9-----9---9-----4---6-4---4-4-4-|
|---9---9-----9---/121212----7------9---119------9---9-9---9-9-9-9-9\--4---6-4---4-4-4-|
|---7---9---119---/121212----7------7---7-7------7---7-7---7-7-7-7-7\--2-----2---2-2-2-|
|-0-----7-----7---/101010----5----xx----------5/7--------------------------------------|
                        2'24"
|---------------------|-------------------------2-2---0--|
|----------7---2---3--|---------------2---3-2---4-4---2--|
|-6----7---7---2---2--|-9-9-----------2---2-2---4-4---2--|
|-6----7-------2---0--|-9-9---119---2-2---2-2---------2--|
|-4----5-------0---0--|-7-7-----7---0-0---0-0---------0--|
|---------------------|---------------------------------.....

2'35"
|---------------------------|----|-----------------------------------|
|---------------------------|----|-----------------------------------|
|---------------------------|-0/-|-----------------------------9-----|
|---------5b---75-7-5--5b---|-/0-|-54-5-42-------54-5-42-------9-----|
|-75-7-5-----7-------7----7-|----|---------5b7-3---------3b5-0-7-----|
|-------7-------------------| 2X |-----------------------------0-----|
|multitrack backing gtrs arr for one:
|-1919-19----1717-17--16--17--18--|----|-1919-19----1717-17----2020-20----2121-21--|------|-19----|
|-2121-21----2020-20--21--22--21--|----|-2121-21----2020-20----2222-22----2222-22--|------|-21----|
|-1919-19----1818-18--20--21--18--|-0/-|-1919-19----1818-18----2121-21----2121-21--|-0///-|-21----|
|-1818-18----1717-17--17--17--17--|-/0-|-1818-18----1717-17----1919-19----1919-19--|-///0-|-21----|
|---------------------------------|----|-------------------------------------------|------|-------|
|---------------------------------|----|-------------------------------------------|------|-------|

2'48"
|------------|--------------------------|----|------------------------------------------|
|------------|--------------------------|----|------------------------------------------|
|--------(0)-|--------------------------|-0/-|------------------------------55-55-55-55-|
|-7p5--/\(0)-|--------5b---75-7-5--5b---|-/0-|---------5b---7p5--5-7b8r7p5--55-55-55-55-|
|------------|75-7-5-----7-------7----7-|----|-75-75-7----7----7----------7-33-33-33-33-|
|------------|------7-------------------|----|------------------------------------------|

|------------------------------------------------12----------------------------------------------------|
|--2---------------------------------15b17---15b---15141312-------------12b-----------------------12b--|
|-\2-------------------------------------------------------15141214p12--12b--------12-------------12b--|
|-\2----24p24p2-2------7p5--------------------------------------------14----14p12--12------------------|
|-\0-3b--------4-------------7---------------------------------------------------14--14p121012/14------|
|-----------------0-----------6\/15--------------------------------------------------------------------|





Comments


Popular Queen tabs & chords
Jealousy Bass Tabs
Nevermore End Bass Tabs
'39 1 Chords
Bijou Chords
Call Me Chords
Youre My Best Friend 1 Chords
Breakthrough Tabs
She Makes Me Tabs
Tie Your Mother Down 1 Tabs
Made In Heaven Ukulele


Song lyrics



↑ Back to top | Tablatures and chords are parodies/interpretations of the original songs. You may use it for private study, scholarship, research or language learning purposes only
© 2014 AZChords.com Contact us | Privacy policy | DMCA | Add/correct tabs | Request tabs | Top 50 tabs