» » »

Queen, Show Must Go On Tabs (ver.5)

Artists:  A B C D E F G H I J K L M N O P Q R S T U V W X Y Z # 

Show Must Go On Tabs (ver.5)

Queen Tabs
Rating:
0/5 (0 votes)
Show Must Go On lessons Tabs too difficult? Try these video lessons and learn fast
                " 
Tune:E-A-D-G-B-E

-------------------------------------------------------------------------E
-------------------------------------------------------------------------B
----14-------14----------14------14-----14-------------------------------G
--------15b--------15b--------15b----15b---------------------------------D
-------------------------------------------------------------------------A
-------------------------------------------------------------------------E

--------------------------------------------------------------14-15------E
---------------------------------14-15-14h15h14----14-15--17-------------B
------16-14----14-16-14-----14-16----------------16----------------------G
------------16-----------16----------------------------------------------D
-------------------------------------------------------------------------A
-------------------------------------------------------------------------E
              pm   BU    BD
--17--19------21-21---23----21-19--21-21-19-21-19----19----19---BU--BD---E
--------------------------------------------------22----22---22---24---22B
-------------------------------------------------------------------------G
-------------------------------------------------------------------------D
-------------------------------------------------------------------------A
-------------------------------------------------------------------------B

--15------14-----12------------------------------------------------------E
--19b-----17b----15b----15----14---12----11----10------------------------B
------------------------17b---16b--14b---13b---12b-----------------------G
----------------------------------------------------5--------------------D
----------------------------------------------------5--------------------A
----------------------------------------------------3--------------------E

-------------------------------------------------------------------------E
-------------------------------------------------------------------------B
------------------------------------------2-----6------------------------G
--2------------7---5-------3----5------2--2-----6------------------------D
--2------------7---5-------3----5------2--0-----4------------------------A
--0------------5---3-------1----3------0---------------------------------E

-3-3-3-3-3-3-3-2---------------------------------------------------------E
-3-3-3-3-3-3-3-3---------------------------------------------------------B
-2-2-2-2-2-2-2-2---------------------------------------------------------G
-0-0-0-0-0-0-0-0---------------------------------------------------------D
-------------------------------------------------------------------------A
-------------------------------------------------------------------------E
"            
Submit corrections

comments powered by Disqus
↑ Back to top | Queen Tabs for Show Must Go On. Lyrics for acoustic guitar and electric guitar. Tablatures and chords are parodies/interpretations of the original songs. You may use it for private study, scholarship, research or language learning purposes only