>
 >
Show Must Go On

Show Must Go On Bass Tabs

Queen - Show Must Go On chords, tabs, tablatures, lyrics

Guitar lessons | Add/correct | Request | Top 50 tabs Artists:  A B C D E F G H I J K L M N O P Q R S T U V W X Y Z 0-9

Show Must Go On Bass Tabs – Queen

CD, Sheet music, Poster

Do you like Show Must Go On? Share with your friends now
Bass TabsTabsTabs v2
Queen 
The show must go on
Bas tab

Intro:
                                        empty....
|----|----16p14-|12-----|(12)---|----|----|----|
|-R--|----------|-------|-------|-R--|-R--|-R--|
|----|----------|-------|-------|----|----|----|
|----|----------|-------|-------|----|----|----|


...spaces       
|--------|------19-18-------|-12----------------12-|-14-12-----------|
|--------|------------21-19-|-------12-------12----|-------12--------|
|-2------|------------------|----------10----------|-----------10--9-|
|--------|------------------|----------------------|-----------------|

 
|------9/s11s\9-----|---------11-----11-|------|-----------|-4-----|
|----9----------9---|------11-----11----|------|---------4-|-------|
|-7---------------7-|-9-----------------|------|-2---------|-------|
|-------------------|-------------------|-12---|-----------|-------|

|-0----------|-12-------11-|-9-------9----|--------11-------|
|---------12-|-------------|----------9---|-----11------11--|
|------------|-------------|-----------78-|-9-------------9-|
|------------|-------------|--------------|-----------------|

|--------------|----------|----------|----------|--------------|
|-------7---5--|----------|----------|----------|--------------|
|7-77779-------|-2---2-2--|-2---2-2--|----------|--------------|
|--------------|----------|----------|-3---3-3--|-3---3-3---32-|
                                                                    whatever..
|-----------------|-----------------|-------9-----|------------------|----
|-----------------|-----------------|-----9-----9-|------------------|-9--
|-----------------|-----------------|-7-----------|----------------9-|----
|-0-0-0-0-0-0-0-0-|-2-2-2-2-2-2-2-2-|-------------|-7-7-7-7-7-7-7-7--|----

..happens
|---------------|---------------------|-------2-----|-----------------|
|---------------|------------------2--|-----2-----2-|-------0-0-0-----|
|-4---4-4-4-4-4-|-4-------4/s--16---4-|-0-----------|-0-----------4-4-|
|---------------|-------4-------------|-------------|-----------------|

|---------------|--------1---1----|------------|----------------|
|-----------4---|------1-------1--|------------|----------------|
|-------------4-|---------------4-|------------|-4----4-4-4-4-4-|
|-2----2-2------|-4---------------|-2---2-2--2-|----------------|

|-----------------|-----------------|-----------------|-----------------|
|-----------------|-----------------|-----------------|-----------------|
|-4-4-4-4-4-4-2-2-|-0-0-0-0-0-0-0-0-|-0-0-0-0-0-0-----|-----------------|
|-----------------|-----------------|-------------4-4-|-2-2-2-2-2-2-2-2-|

|-----------------|-------------|--------------|----------------|
|-----------------|-4-----------|--------------|----------------|
|-----------------|-------------|--------------|-2---2-2-----22-|
|-4-4-4-4-4-4-4-4-|------2--2-2-|-00000000-----|----------------|

|----------------|------------------|-------------------------------|
|----------------|------------------|--5-(7)/9--7-5-----------------|
|-2-4-5-4-2----0-|------------------|---------------7-5-----------5-|
|----------------|-3---3-3-3----3-3-|-------------------7-7---5-7---|
|----------------|------------------|-----------------------8-------|

|---------------|-------------------|--------------|------------------|
|-2-------------|-----------4----44-|-22-2-2-------|------------------|
|----2----------|---------4---------|-------2------|-2-2-2-2-2-2-2-22-|
|------0-----00-|-2--22-2-----------|---------0----|------------------|

Fast piece of guitar solo
|-------------------------|-----------------|-----------------|
|----------44-------------|-----------------|-5---------------|
|-22-44-55----55-44-22-00-|---------------5-|-----------------|
|-------------------------|-3-3-3-3-3-3-3---|---3-3-3-3-3-2-2-|

|------------------|-------------------|-------------|-----------------|
|------------------|-------------------|-------------|-----------------|
|------------------|-------------------|-------------|-----------------|
|-0-0-0-0-0-0-0-01-|-2-2-2-2-2-2-2-2-2-|-0---0-0---0-|-1---1-1-1---1-1-|

                                                   I can fly
|---------------|-----------------|-----------------|-------------------|
|---------------|---------3---3-3-|-2-----------2-0-|-------------------|
|---------0-----|-----------------|---------0-------|-444-4-4-4--4-4-4--|
|-0-0-0-0-----3-|-1-1-1-1---------|---0-0-0---------|-------------5-5-5-|

|--------------|-----------------|---------------------|-----------------|
|-00000000-----|-----------------|---------------------|-----------------|
|--------------|-222-2-2-2-2-2-2-|-22-2-2-2-2-2-2--2-0-|-----------------|
|--------------|-----------------|---------------------|-3-3-3-3-3-3-3-3-|

|------------------|---------------------|-----------------|----------------|
|------------------|-----------22-2-20---|-----------------|-2-2-2-2--------|
|------------------|------22-5--------20-|-----------------|----------------|
|-3-3-3-3-3-3-2-22-|-0-0-----------------|-2-2-2-2-2-2-2-2-|---------0-0-0-0|

|-----------------|-42-2-4--2-42-2-4--2--|---------------|
|-----------------|---4------4--4------5-|---------------|
|-2-2-2-2-2-2-2-2-|----------------------|---------------|
|-----------------|----------------------|-3---3-3-3-3-3-|

|---------------------|-------------------|-----------------|
|---------------------|-------------------|-----------------|
|---------------------|--------7-7-7-7-7--|-----------------|
|-3-33-3-33-3-33-2-22-|-0-0-0-7---------7-|-2-2-2-2-2-2-2-2-|

|-----------------|-------|-9999-9999-9------|-----|----|-----|-----|-----||
|-----------------|-------|------------------|--R--|----|-----|-----|-----||
|---------------2-|-7-----|------------------|-----|--2-|-(2)-|-(2)-|-(2)-||
|-0-0-0-0-0---0---|-------|------------------|-----|----|-----|-----|-----||


END





Comments


Popular Queen tabs & chords
A Kind Of Magic Chords
Friends Will Be Friends Chords
We Are The Champions Drum Tabs
Bohemian Rhapsody (Solo) Tabs
Dreamer's Ball 1 Tabs
Lazing On A Sunday Afternoon 1 Tabs
Liar Tabs
Under Pressure Tabs
Who Needs You Tabs
Made In Heaven Ukulele


Song lyrics



↑ Back to top | Tablatures and chords are parodies/interpretations of the original songs. You may use it for private study, scholarship, research or language learning purposes only
© 2014 AZChords.com Contact us | Privacy policy | DMCA | Add/correct tabs | Request tabs | Top 50 tabs