» » »

Queen, Seaside Rendezvous Bass tabs (ver.1)

Artists:  A B C D E F G H I J K L M N O P Q R S T U V W X Y Z # 

Seaside Rendezvous Bass tabs (ver.1)

Queen Tabs
Rating:
0/5 (0 votes)
Seaside Rendezvous lessons Tabs too difficult? Try these video lessons and learn fast
                -------------------------------------------------------------------------------
			     Seaside Rendezvous - Queen
-------------------------------------------------------------------------------


Tuning: Standard (G,D,A,E)
Hi! This is the (revised) complete bass tab for
Seaside Rendezvous, a somewhat kitschy song
tab a while ago, and, upon revision, made
a few mistakes, which I've corrected
(hopefully completely) in this version. It's pretty easy
and fun to play, if you like cheesy nostalgic songs :P
Words and music by Freddie Mercury, bassline by John Deacon

Short piano intro- bass comes in at 0:03
G|---------------------------------------------------------------------------|
D|---------------------------------------------------------------------------|
A|---------------------------------------------------------------------------|
E|--3-3----------------------------------------------------------------------|
"Seaside..."
G|---5--5--5--5--5--5--5--5--------------------------7--7--7--7--------------|
D|------------------------------5-5---5--------------------------5-7-9-7-5/--|
A|-3--3--3--3--3--3--3--3--------------------------5--5--5--5----------------|
E|---------------------------3------3----3--5--7-----------------------------|
"You say you will..."
G|---5--5--------------------------------------------------------------------|
D|-------------3--5---------15--14-----------------9-8-7---------------------|
A|-3---3---3--------3---------------17--15-----------------8-7-5-----3-------|
E|--------------------5---------------------333--8----------------3----------|
"Feel so romantic..."
G|--10-10-10-10----12--12---12---12---5--5--5--5-----------7-----------------|
D|-------------------------------------------------7-7-7--------8-7-6-5------|
A|-8--8--8--8----10---10--10--10---3---3---3--3------------5-----------------|
E|---------------------------------------------------------------------------|
"So tres charmant..."
G|----------------5--5--5--5--5--5--5-----------7--7--7--7----------5--5-----|
D|-5-7-9-7-5-----------------------------------------------5-7/--------------|
A|-------------3--3--3--3--3--3--3-----------5--5--5--5-----------3--3--3----|
E|--------------------------------------3------------------------------------|

G|------------19---------------------------55--44--33------------------------|
D|--2-3-5---19--7-10-9-8-7/-3----------------------------77---4-3------------|
A|---------------------------------------3---2---1------------------3--------|
E|-----------------------------3-3-3------------------5-----------3----------|
"I feel like dancing..."
G|----10-10-10-10-----------------8-9------5--5--5--5---------7/-------------|
D|--------------------7-8-9-10-12-----------------------7-7-7----------------|
A|--8--8--8--8---8-10-----------------7--3--3--3--3--------------------------|
E|---------------------------------------------------------------------------|
"It's such a..."
G|-----------------------5--5--5--5--5--5--5--5--------------------7--7--7-7-|
D|-8-7-6-5--5-7-9-7-5/-----------------------------5-5--5--------------------|
A|---------------------3--3--3--3--3--3--3--3--------------------5--5--5--5--|
E|-----------------------------------------------3----3---3-5-7--------------|
                  "You say you'd..."
G|-------------------5--5--------------19------------------------------------|
D|--5-7-9-11-12/-------------2-3-5---19----10-7--15-14-----------------------|
A|-----------------3--3--3-----------------------------17-15-----------------|
E|------------------------------------------------------------8-7-6-5--------|
"Seaside rendezvous..."
G|---------------------------------------------------------------------------|
D|-----------------------------15-14-12-----10-------------------------------|
A|--7-6-5-----3--10-9-8---3--------------10----------------------------------|
E|---------3------------3------------------------3---------------------------|

And you're done! You should listen to the song
to get the timing down, obviously. I'm pretty sure
this tab is 100% correct, now, but I'll check again
later and see if I need to make any changes. If 
you notice any mistakes, please let me know!
By the by, please feel free to rate. I'd like
to know what you actually think of this.

| /  slide up
| \  slide down
| h  hammer-on
| p  pull-off
| ~  vibrato
| +  harmonic
| x  Mute note
===============================================================================
            

comments powered by Disqus
↑ Back to top | Queen Bass for Seaside Rendezvous. Lyrics for acoustic guitar and electric guitar. Tablatures and chords are parodies/interpretations of the original songs. You may use it for private study, scholarship, research or language learning purposes only